  0
SECTION
  2
HEADER
  9
$ACADVER
  1
AC1015
  9
$ACADMAINTVER
 70
    13
  9
$DWGCODEPAGE
  3
ANSI_1252
  9
$INSBASE
 10
2531.070607065069
 20
1705.215960103575
 30
0.0
  9
$EXTMIN
 10
2341.773236781809
 20
1688.245397355098
 30
0.0
  9
$EXTMAX
 10
2719.906110316965
 20
2755.215954349911
 30
0.0
  9
$LIMMIN
 10
0.0
 20
0.0
  9
$LIMMAX
 10
420.0
 20
297.0
  9
$ORTHOMODE
 70
     1
  9
$REGENMODE
 70
     1
  9
$FILLMODE
 70
     1
  9
$QTEXTMODE
 70
     0
  9
$MIRRTEXT
 70
     1
  9
$LTSCALE
 40
1.0
  9
$ATTMODE
 70
     1
  9
$TEXTSIZE
 40
2.5
  9
$TRACEWID
 40
1.0
  9
$TEXTSTYLE
  7
Standard
  9
$CLAYER
  8
0
  9
$CELTYPE
  6
ByLayer
  9
$CECOLOR
 62
   256
  9
$CELTSCALE
 40
1.0
  9
$DISPSILH
 70
     0
  9
$DIMSCALE
 40
1.0
  9
$DIMASZ
 40
2.5
  9
$DIMEXO
 40
0.625
  9
$DIMDLI
 40
3.75
  9
$DIMRND
 40
0.0
  9
$DIMDLE
 40
0.0
  9
$DIMEXE
 40
1.25
  9
$DIMTP
 40
0.0
  9
$DIMTM
 40
0.0
  9
$DIMTXT
 40
2.5
  9
$DIMCEN
 40
2.5
  9
$DIMTSZ
 40
0.0
  9
$DIMTOL
 70
     0
  9
$DIMLIM
 70
     0
  9
$DIMTIH
 70
     0
  9
$DIMTOH
 70
     0
  9
$DIMSE1
 70
     0
  9
$DIMSE2
 70
     0
  9
$DIMTAD
 70
     1
  9
$DIMZIN
 70
     8
  9
$DIMBLK
  1

  9
$DIMASO
 70
     1
  9
$DIMSHO
 70
     1
  9
$DIMPOST
  1

  9
$DIMAPOST
  1

  9
$DIMALT
 70
     0
  9
$DIMALTD
 70
     3
  9
$DIMALTF
 40
0.03937007874016
  9
$DIMLFAC
 40
1.0
  9
$DIMTOFL
 70
     1
  9
$DIMTVP
 40
0.0
  9
$DIMTIX
 70
     0
  9
$DIMSOXD
 70
     0
  9
$DIMSAH
 70
     0
  9
$DIMBLK1
  1

  9
$DIMBLK2
  1

  9
$DIMSTYLE
  2
ISO-25
  9
$DIMCLRD
 70
     0
  9
$DIMCLRE
 70
     0
  9
$DIMCLRT
 70
     0
  9
$DIMTFAC
 40
1.0
  9
$DIMGAP
 40
0.625
  9
$DIMJUST
 70
     0
  9
$DIMSD1
 70
     0
  9
$DIMSD2
 70
     0
  9
$DIMTOLJ
 70
     0
  9
$DIMTZIN
 70
     8
  9
$DIMALTZ
 70
     0
  9
$DIMALTTZ
 70
     0
  9
$DIMUPT
 70
     0
  9
$DIMDEC
 70
     2
  9
$DIMTDEC
 70
     2
  9
$DIMALTU
 70
     2
  9
$DIMALTTD
 70
     3
  9
$DIMTXSTY
  7
Standard
  9
$DIMAUNIT
 70
     0
  9
$DIMADEC
 70
     0
  9
$DIMALTRND
 40
0.0
  9
$DIMAZIN
 70
     0
  9
$DIMDSEP
 70
    44
  9
$DIMATFIT
 70
     3
  9
$DIMFRAC
 70
     0
  9
$DIMLDRBLK
  1

  9
$DIMLUNIT
 70
     2
  9
$DIMLWD
 70
    -2
  9
$DIMLWE
 70
    -2
  9
$DIMTMOVE
 70
     0
  9
$LUNITS
 70
     2
  9
$LUPREC
 70
     4
  9
$SKETCHINC
 40
1.0
  9
$FILLETRAD
 40
1.0
  9
$AUNITS
 70
     0
  9
$AUPREC
 70
     0
  9
$MENU
  1
.
  9
$ELEVATION
 40
0.0
  9
$PELEVATION
 40
0.0
  9
$THICKNESS
 40
0.0
  9
$LIMCHECK
 70
     0
  9
$CHAMFERA
 40
10.0
  9
$CHAMFERB
 40
10.0
  9
$CHAMFERC
 40
20.0
  9
$CHAMFERD
 40
0.0
  9
$SKPOLY
 70
     0
  9
$TDCREATE
 40
2454433.448533286
  9
$TDUCREATE
 40
2454432.990199953
  9
$TDUPDATE
 40
2454435.426749525
  9
$TDUUPDATE
 40
2454434.968416192
  9
$TDINDWG
 40
0.2745901389
  9
$TDUSRTIMER
 40
0.2745901389
  9
$USRTIMER
 70
     1
  9
$ANGBASE
 50
0.0
  9
$ANGDIR
 70
     0
  9
$PDMODE
 70
     0
  9
$PDSIZE
 40
0.0
  9
$PLINEWID
 40
0.0
  9
$SPLFRAME
 70
     0
  9
$SPLINETYPE
 70
     6
  9
$SPLINESEGS
 70
     8
  9
$HANDSEED
  5
2CD
  9
$SURFTAB1
 70
     6
  9
$SURFTAB2
 70
     6
  9
$SURFTYPE
 70
     6
  9
$SURFU
 70
     6
  9
$SURFV
 70
     6
  9
$UCSBASE
  2

  9
$UCSNAME
  2

  9
$UCSORG
 10
0.0
 20
0.0
 30
0.0
  9
$UCSXDIR
 10
1.0
 20
0.0
 30
0.0
  9
$UCSYDIR
 10
0.0
 20
1.0
 30
0.0
  9
$UCSORTHOREF
  2

  9
$UCSORTHOVIEW
 70
     0
  9
$UCSORGTOP
 10
0.0
 20
0.0
 30
0.0
  9
$UCSORGBOTTOM
 10
0.0
 20
0.0
 30
0.0
  9
$UCSORGLEFT
 10
0.0
 20
0.0
 30
0.0
  9
$UCSORGRIGHT
 10
0.0
 20
0.0
 30
0.0
  9
$UCSORGFRONT
 10
0.0
 20
0.0
 30
0.0
  9
$UCSORGBACK
 10
0.0
 20
0.0
 30
0.0
  9
$PUCSBASE
  2

  9
$PUCSNAME
  2

  9
$PUCSORG
 10
0.0
 20
0.0
 30
0.0
  9
$PUCSXDIR
 10
1.0
 20
0.0
 30
0.0
  9
$PUCSYDIR
 10
0.0
 20
1.0
 30
0.0
  9
$PUCSORTHOREF
  2

  9
$PUCSORTHOVIEW
 70
     0
  9
$PUCSORGTOP
 10
0.0
 20
0.0
 30
0.0
  9
$PUCSORGBOTTOM
 10
0.0
 20
0.0
 30
0.0
  9
$PUCSORGLEFT
 10
0.0
 20
0.0
 30
0.0
  9
$PUCSORGRIGHT
 10
0.0
 20
0.0
 30
0.0
  9
$PUCSORGFRONT
 10
0.0
 20
0.0
 30
0.0
  9
$PUCSORGBACK
 10
0.0
 20
0.0
 30
0.0
  9
$USERI1
 70
     0
  9
$USERI2
 70
     0
  9
$USERI3
 70
     0
  9
$USERI4
 70
     0
  9
$USERI5
 70
     0
  9
$USERR1
 40
0.0
  9
$USERR2
 40
0.0
  9
$USERR3
 40
0.0
  9
$USERR4
 40
0.0
  9
$USERR5
 40
0.0
  9
$WORLDVIEW
 70
     1
  9
$SHADEDGE
 70
     3
  9
$SHADEDIF
 70
    70
  9
$TILEMODE
 70
     1
  9
$MAXACTVP
 70
    64
  9
$PINSBASE
 10
0.0
 20
0.0
 30
0.0
  9
$PLIMCHECK
 70
     0
  9
$PEXTMIN
 10
1.000000000000000E+20
 20
1.000000000000000E+20
 30
1.000000000000000E+20
  9
$PEXTMAX
 10
-1.000000000000000E+20
 20
-1.000000000000000E+20
 30
-1.000000000000000E+20
  9
$PLIMMIN
 10
0.0
 20
0.0
  9
$PLIMMAX
 10
420.0
 20
297.0
  9
$UNITMODE
 70
     0
  9
$VISRETAIN
 70
     1
  9
$PLINEGEN
 70
     0
  9
$PSLTSCALE
 70
     1
  9
$TREEDEPTH
 70
  3020
  9
$CMLSTYLE
  2
Standard
  9
$CMLJUST
 70
     0
  9
$CMLSCALE
 40
20.0
  9
$PROXYGRAPHICS
 70
     1
  9
$MEASUREMENT
 70
     1
  9
$CELWEIGHT
370
    -1
  9
$ENDCAPS
280
     0
  9
$JOINSTYLE
280
     0
  9
$LWDISPLAY
290
     0
  9
$INSUNITS
 70
     4
  9
$HYPERLINKBASE
  1

  9
$STYLESHEET
  1

  9
$XEDIT
290
     1
  9
$CEPSNTYPE
380
     0
  9
$PSTYLEMODE
290
     1
  9
$FINGERPRINTGUID
  2
{BD7C8BDF-0318-4FE5-A1DE-246682F3ECE3}
  9
$VERSIONGUID
  2
{3AE15C57-7F79-43C0-8CCA-A889D5FA2AE6}
  9
$EXTNAMES
290
     1
  9
$PSVPSCALE
 40
0.0
  9
$OLESTARTUP
290
     0
  0
ENDSEC
  0
SECTION
  2
CLASSES
  0
CLASS
  1
ACDBDICTIONARYWDFLT
  2
AcDbDictionaryWithDefault
  3
AutoCAD 2000
 90
        0
280
     0
281
     0
  0
CLASS
  1
ACDBPLACEHOLDER
  2
AcDbPlaceHolder
  3
AutoCAD 2000
 90
        0
280
     0
281
     0
  0
CLASS
  1
LAYOUT
  2
AcDbLayout
  3
AutoCAD 2000
 90
        0
280
     0
281
     0
  0
CLASS
  1
DICTIONARYVAR
  2
AcDbDictionaryVar
  3
AutoCAD 2000
 90
        0
280
     0
281
     0
  0
CLASS
  1
SORTENTSTABLE
  2
AcDbSortentsTable
  3
AutoCAD 2000
 90
        0
280
     0
281
     0
  0
ENDSEC
  0
SECTION
  2
TABLES
  0
TABLE
  2
VPORT
  5
1B
330
0
100
AcDbSymbolTable
 70
     2
  0
VPORT
  5
2CC
330
1B
100
AcDbSymbolTableRecord
100
AcDbViewportTableRecord
  2
*Active
 70
     0
 10
0.0
 20
0.0
 11
1.0
 21
1.0
 12
2530.839673549387
 22
2221.730675852505
 13
0.0
 23
0.0
 14
10.0
 24
10.0
 15
10.0
 25
10.0
 16
0.0
 26
0.0
 36
1.0
 17
0.0
 27
0.0
 37
0.0
 40
1075.023164972132
 41
1.468513853904282
 42
50.0
 43
0.0
 44
0.0
 50
0.0
 51
0.0
 71
     0
 72
   100
 73
     1
 74
     3
 75
     0
 76
     0
 77
     0
 78
     0
281
     0
 65
     1
110
0.0
120
0.0
130
0.0
111
1.0
121
0.0
131
0.0
112
0.0
122
1.0
132
0.0
 79
     0
146
0.0
  0
ENDTAB
  0
TABLE
  2
LTYPE
  5
16
330
0
100
AcDbSymbolTable
 70
     2
  0
LTYPE
  5
17
330
16
100
AcDbSymbolTableRecord
100
AcDbLinetypeTableRecord
  2
ByBlock
 70
     0
  3

 72
    65
 73
     0
 40
0.0
  0
LTYPE
  5
18
330
16
100
AcDbSymbolTableRecord
100
AcDbLinetypeTableRecord
  2
ByLayer
 70
     0
  3

 72
    65
 73
     0
 40
0.0
  0
LTYPE
  5
8
330
16
100
AcDbSymbolTableRecord
100
AcDbLinetypeTableRecord
  2
Continuous
 70
     0
  3
Solid line
 72
    65
 73
     0
 40
0.0
  0
LTYPE
  5
28D
330
16
100
AcDbSymbolTableRecord
100
AcDbLinetypeTableRecord
  2
PHANTOM
 70
     0
  3
_____ _ _ _____ _ _ _____ _ _ _____ _ _ ____
 72
    65
 73
     6
 40
2.5
 49
1.25
 74
     0
 49
-0.25
 74
     0
 49
0.25
 74
     0
 49
-0.25
 74
     0
 49
0.25
 74
     0
 49
-0.25
 74
     0
  0
ENDTAB
  0
TABLE
  2
LAYER
  5
10
102
{ACAD_XDICTIONARY
360
11
102
}
330
0
100
AcDbSymbolTable
 70
     2
  0
LAYER
  5
4
330
10
100
AcDbSymbolTableRecord
100
AcDbLayerTableRecord
  2
0
 70
     0
 62
     7
  6
Continuous
370
    -3
390
5
  0
LAYER
  5
2C
330
10
100
AcDbSymbolTableRecord
100
AcDbLayerTableRecord
  2
CAR_DATUMS
 70
     0
 62
     2
  6
Continuous
370
    -3
390
5
1001
AcAecLayerStandard
1000

1000

  0
ENDTAB
  0
TABLE
  2
STYLE
  5
13
330
0
100
AcDbSymbolTable
 70
     1
  0
STYLE
  5
14
330
13
100
AcDbSymbolTableRecord
100
AcDbTextStyleTableRecord
  2
Standard
 70
     0
 40
0.0
 41
1.0
 50
0.0
 71
     0
 42
2.5
  3
txt
  4

  0
ENDTAB
  0
TABLE
  2
VIEW
  5
19
330
0
100
AcDbSymbolTable
 70
     0
  0
ENDTAB
  0
TABLE
  2
UCS
  5
1A
330
0
100
AcDbSymbolTable
 70
     0
  0
ENDTAB
  0
TABLE
  2
APPID
  5
1D
330
0
100
AcDbSymbolTable
 70
     2
  0
APPID
  5
1E
330
1D
100
AcDbSymbolTableRecord
100
AcDbRegAppTableRecord
  2
ACAD
 70
     0
  0
APPID
  5
2D
330
1D
100
AcDbSymbolTableRecord
100
AcDbRegAppTableRecord
  2
AcAecLayerStandard
 70
     0
  0
ENDTAB
  0
TABLE
  2
DIMSTYLE
  5
1F
330
0
100
AcDbSymbolTable
 70
     1
100
AcDbDimStyleTable
 71
     0
  0
DIMSTYLE
105
25
330
1F
100
AcDbSymbolTableRecord
100
AcDbDimStyleTableRecord
  2
ISO-25
 70
     0
 41
2.5
 42
0.625
 43
3.75
 44
1.25
 73
     0
 74
     0
 77
     1
 78
     8
140
2.5
141
2.5
143
0.03937007874016
147
0.625
171
     3
172
     1
271
     2
272
     2
274
     3
278
    44
283
     0
284
     8
340
14
  0
ENDTAB
  0
TABLE
  2
BLOCK_RECORD
  5
1
330
0
100
AcDbSymbolTable
 70
     3
  0
BLOCK_RECORD
  5
2
330
1
100
AcDbSymbolTableRecord
100
AcDbBlockTableRecord
  2
*Model_Space
340
A
  0
BLOCK_RECORD
  5
C
330
1
100
AcDbSymbolTableRecord
100
AcDbBlockTableRecord
  2
*Paper_Space
340
F
  0
BLOCK_RECORD
  5
30
102
{ACAD_XDICTIONARY
360
34
102
}
330
1
100
AcDbSymbolTableRecord
100
AcDbBlockTableRecord
  2
A$C54EE2A82
340
0
102
{BLKREFS
331
2F
102
}
  0
BLOCK_RECORD
  5
2E
102
{ACAD_XDICTIONARY
360
38
102
}
330
1
100
AcDbSymbolTableRecord
100
AcDbBlockTableRecord
  2
A$C1C444B8B
340
0
102
{BLKREFS
331
2B
102
}
  0
BLOCK_RECORD
  5
3E
102
{ACAD_XDICTIONARY
360
42
102
}
330
1
100
AcDbSymbolTableRecord
100
AcDbBlockTableRecord
  2
A$C239052F4
340
0
102
{BLKREFS
331
3D
331
16E
102
}
  0
ENDTAB
  0
ENDSEC
  0
SECTION
  2
BLOCKS
  0
BLOCK
  5
3
330
2
100
AcDbEntity
  8
0
100
AcDbBlockBegin
  2
*Model_Space
 70
     0
 10
0.0
 20
0.0
 30
0.0
  3
*Model_Space
  1

  0
ENDBLK
  5
9
330
2
100
AcDbEntity
  8
0
100
AcDbBlockEnd
  0
BLOCK
  5
D
330
C
100
AcDbEntity
 67
     1
  8
0
100
AcDbBlockBegin
  2
*Paper_Space
 70
     0
 10
0.0
 20
0.0
 30
0.0
  3
*Paper_Space
  1

  0
ENDBLK
  5
E
330
C
100
AcDbEntity
 67
     1
  8
0
100
AcDbBlockEnd
  0
BLOCK
  5
36
330
30
100
AcDbEntity
  8
0
100
AcDbBlockBegin
  2
A$C54EE2A82
 70
     0
 10
0.0
 20
0.0
 30
0.0
  3
A$C54EE2A82
  1

  0
CIRCLE
  5
31
330
30
100
AcDbEntity
  8
0
 62
     5
100
AcDbCircle
 10
0.0040841904794888
 20
-0.0040841904794888
 30
0.0
 40
14.0
  0
LINE
  5
32
330
30
100
AcDbEntity
  8
0
 62
     5
100
AcDbLine
 10
16.97464693895665
 20
-16.97464693895676
 30
0.0
 11
-16.96647855799767
 21
16.96647855799779
 31
0.0
  0
LINE
  5
33
330
30
100
AcDbEntity
  8
0
 62
     5
100
AcDbLine
 10
-16.96647855799767
 20
-16.97464693895676
 30
0.0
 11
16.97464693895665
 21
16.96647855799779
 31
0.0
  0
ENDBLK
  5
37
330
30
100
AcDbEntity
  8
0
100
AcDbBlockEnd
  0
BLOCK
  5
3A
330
2E
100
AcDbEntity
  8
0
100
AcDbBlockBegin
  2
A$C1C444B8B
 70
     0
 10
0.0
 20
0.0
 30
0.0
  3
A$C1C444B8B
  1

  0
INSERT
  5
2F
330
2E
100
AcDbEntity
  8
CAR_DATUMS
100
AcDbBlockReference
  2
A$C54EE2A82
 10
-0.0040841904794888
 20
0.0040841904794888
 30
0.0
  0
ENDBLK
  5
3B
330
2E
100
AcDbEntity
  8
0
100
AcDbBlockEnd
  0
BLOCK
  5
44
330
3E
100
AcDbEntity
  8
0
100
AcDbBlockBegin
  2
A$C239052F4
 70
     0
 10
0.0
 20
0.0
 30
0.0
  3
A$C239052F4
  1

  0
CIRCLE
  5
3F
330
3E
100
AcDbEntity
  8
0
 62
     2
100
AcDbCircle
 10
0.0
 20
0.0
 30
0.0
 40
14.0
  0
LINE
  5
40
330
3E
100
AcDbEntity
  8
0
 62
     2
100
AcDbLine
 10
16.97056274847716
 20
-16.97056274847716
 30
0.0
 11
-16.97056274847716
 21
16.97056274847716
 31
0.0
  0
LINE
  5
41
330
3E
100
AcDbEntity
  8
0
 62
     2
100
AcDbLine
 10
-16.97056274847716
 20
-16.97056274847716
 30
0.0
 11
16.97056274847716
 21
16.97056274847716
 31
0.0
  0
ENDBLK
  5
45
330
3E
100
AcDbEntity
  8
0
100
AcDbBlockEnd
  0
ENDSEC
  0
SECTION
  2
ENTITIES
  0
LINE
  5
26
330
2
100
AcDbEntity
  8
0
100
AcDbLine
 10
2504.570607065069
 20
2210.380390166263
 30
0.0
 11
2504.570607065069
 21
2240.908098632549
 31
0.0
  0
LINE
  5
27
330
2
100
AcDbEntity
  8
0
100
AcDbLine
 10
2557.570607065069
 20
2210.366243276678
 30
0.0
 11
2557.570607065069
 21
2240.908098632549
 31
0.0
  0
LINE
  5
28
330
2
100
AcDbEntity
  8
0
100
AcDbLine
 10
2652.070607065069
 20
1705.215960103575
 30
0.0
 11
2621.054856602734
 21
1864.725533909871
 31
0.0
  0
LINE
  5
29
330
2
100
AcDbEntity
  8
0
100
AcDbLine
 10
2410.070607065069
 20
1705.215960103575
 30
0.0
 11
2441.086357527405
 21
1864.725533909871
 31
0.0
  0
LINE
  5
2A
330
2
100
AcDbEntity
  8
0
100
AcDbLine
 10
2531.070607065069
 20
1705.215960103575
 30
0.0
 11
2410.070607065069
 21
1705.215960103575
 31
0.0
  0
INSERT
  5
2B
330
2
100
AcDbEntity
  8
CAR_DATUMS
100
AcDbBlockReference
  2
A$C1C444B8B
 10
2531.070607065069
 20
1705.215960103575
 30
0.0
  0
LINE
  5
3C
330
2
100
AcDbEntity
  8
0
100
AcDbLine
 10
2531.070607065069
 20
1705.215960103575
 30
0.0
 11
2652.070607065069
 21
1705.215960103575
 31
0.0
  0
INSERT
  5
3D
330
2
100
AcDbEntity
  8
CAR_DATUMS
100
AcDbBlockReference
  2
A$C239052F4
 10
2531.070607065069
 20
1720.215960103575
 30
0.0
  0
LINE
  5
46
330
2
100
AcDbEntity
  8
0
 62
     7
100
AcDbLine
 10
2713.394971400949
 20
2137.774925538823
 30
0.0
 11
2679.86599496052
 21
2137.781090089604
 31
0.0
  0
LWPOLYLINE
  5
47
330
2
100
AcDbEntity
  8
0
 62
     7
100
AcDbPolyline
 90
       30
 70
     0
 43
0.0
 10
2714.59695199177
 20
2162.29726440601
 10
2714.181989223215
 20
2164.263145753666
 10
2713.614728481028
 20
2166.37441284351
 10
2712.880261928293
 20
2168.55947143726
 10
2712.423490077707
 20
2169.71816284351
 10
2711.472577602121
 20
2171.800010988041
 10
2710.421842128488
 20
2173.766563722416
 10
2709.193418056223
 20
2175.788048097416
 10
2707.789701015207
 20
2177.829613038823
 10
2706.411908656809
 20
2179.611046144291
 10
2705.002606898996
 20
2181.24550659351
 10
2703.500134975168
 20
2182.813133546635
 10
2701.906568080637
 20
2184.30800659351
 10
2700.30332711384
 20
2185.660789796635
 10
2698.521894008371
 20
2187.009056398198
 10
2696.755460292551
 20
2188.202843019291
 10
2695.862363368723
 20
2188.755028077885
 10
2693.481183559153
 20
2190.136497804448
 10
2690.326245815012
 20
2191.839805909916
 10
2687.330029994699
 20
2193.322044679447
 10
2684.311124355051
 20
2194.688438722417
 10
2682.29763558552
 20
2195.530723878666
 10
2680.279325038645
 20
2196.321007081791
 10
2678.258969814035
 20
2197.05898315601
 10
2675.143460780832
 20
2198.09462768726
 10
2671.864057094309
 20
2199.052391359135
 10
2668.281827480051
 20
2199.972984620854
 10
2662.498975307199
 20
2201.330528566166
 10
2656.779256374094
 20
2202.516563722416
 10
2652.99944832966
 20
2203.215111085698
  0
ELLIPSE
  5
48
330
2
100
AcDbEntity
  8
0
 62
     7
100
AcDbEllipse
 10
2599.66676095173
 20
2157.509483644291
 30
0.0
 11
-97.32040405273442
 21
-0.8739624023437501
 31
0.0
210
0.0
220
0.0
230
-0.9999999999999998
 40
0.0292422014028464
 41
3.709264993667602
 42
4.14514684677124
  0
LINE
  5
49
330
2
100
AcDbEntity
  8
0
100
AcDbLine
 10
2531.070607065069
 20
2135.215960103576
 30
0.0
 11
2700.013002055995
 21
2135.215960103577
 31
0.0
  0
ARC
  5
4A
330
2
100
AcDbEntity
  8
0
100
AcDbCircle
 10
1795.128147648552
 20
2369.889737894371
 30
0.0
 40
959.4483222057606
100
AcDbArc
 50
334.3521176240354
 51
337.6609319165667
  0
ARC
  5
4B
330
2
100
AcDbEntity
  8
0
100
AcDbCircle
 10
2835.770297783218
 20
2159.911873504655
 30
0.0
 40
481.7146286281221
100
AcDbArc
 50
192.5528530967799
 51
198.7316398176373
  0
ARC
  5
4C
330
2
100
AcDbEntity
  8
0
100
AcDbCircle
 10
2572.867741105642
 20
2028.141078388985
 30
0.0
 40
185.930465486718
100
AcDbArc
 50
203.2980830544413
 51
220.3574826826049
  0
ARC
  5
4D
330
2
100
AcDbEntity
  8
0
100
AcDbCircle
 10
2367.465203302261
 20
1879.040758342538
 30
0.0
 40
75.0
100
AcDbArc
 50
348.9964591482526
 51
3.237786690808756
  0
ARC
  5
4E
330
2
100
AcDbEntity
  8
0
100
AcDbCircle
 10
2404.582009353568
 20
1880.827169830603
 30
0.0
 40
37.84283858830507
100
AcDbArc
 50
3.711379566748624
 51
45.33253060217761
  0
ARC
  5
4F
330
2
100
AcDbEntity
  8
0
100
AcDbCircle
 10
3267.013066481587
 20
2369.889737894371
 30
0.0
 40
959.4483222057606
100
AcDbArc
 50
202.3390680834331
 51
205.6478823759646
  0
ARC
  5
50
330
2
100
AcDbEntity
  8
0
100
AcDbCircle
 10
2489.273473024497
 20
2028.141078388985
 30
0.0
 40
185.930465486718
100
AcDbArc
 50
319.642517317395
 51
336.7019169455585
  0
ARC
  5
51
330
2
100
AcDbEntity
  8
0
100
AcDbCircle
 10
2694.676010827877
 20
1879.040758342538
 30
0.0
 40
75.0
100
AcDbArc
 50
176.7622133091912
 51
191.0035408517473
  0
ARC
  5
52
330
2
100
AcDbEntity
  8
0
100
AcDbCircle
 10
2657.559204776571
 20
1880.827169830603
 30
0.0
 40
37.84283858830507
100
AcDbArc
 50
134.6674693978224
 51
176.2886204332513
  0
LWPOLYLINE
  5
53
330
2
100
AcDbEntity
  8
0
 62
     7
100
AcDbPolyline
 90
        6
 70
     0
 43
0.0
 10
2409.741544276926
 20
2155.578880616948
 10
2427.658109218332
 20
2155.150841066166
 10
2449.509633571359
 20
2154.768883058354
 10
2475.280469447824
 20
2154.463463136479
 10
2502.652837306711
 20
2154.276573488041
 10
2530.839673549387
 20
2154.213646241948
  0
LWPOLYLINE
  5
54
330
2
100
AcDbEntity
  8
0
 62
     7
100
AcDbPolyline
 90
        7
 70
     0
 43
0.0
 10
2530.839673549387
 20
2154.213157960698
 10
2501.33814767048
 20
2154.28212768726
 10
2472.769544154855
 20
2154.486778566166
 10
2449.708158046457
 20
2154.765343019291
 10
2428.523297816965
 20
2155.132286378667
 10
2412.654019862863
 20
2155.499351808354
 10
2409.69940713093
 20
2155.578941652104
  0
LWPOLYLINE
  5
55
330
2
100
AcDbEntity
  8
0
 62
     7
100
AcDbPolyline
 90
       17
 70
     0
 43
0.0
 10
2408.677205592844
 20
2203.214683839604
 10
2411.190976649973
 20
2203.635216066166
 10
2413.710515529367
 20
2204.019676515385
 10
2418.773343593332
 20
2204.709678956791
 10
2423.847302943918
 20
2205.312095948979
 10
2428.923841029856
 20
2205.823204347416
 10
2433.988675624582
 20
2206.268516847416
 10
2444.125699550363
 20
2207.10829956226
 10
2454.286214381906
 20
2207.876732179447
 10
2464.469884425852
 20
2208.565452882573
 10
2474.662816554758
 20
2209.167259523197
 10
2484.864141017649
 20
2209.676719972417
 10
2495.059712917063
 20
2210.089073488041
 10
2505.248250514719
 20
2210.401146241948
 10
2515.46738961384
 20
2210.611473390385
 10
2525.712873012277
 20
2210.717430421635
 10
2530.839673549387
 20
2210.730675050541
  0
LINE
  5
56
330
2
100
AcDbEntity
  8
0
100
AcDbLine
 10
2531.070607065069
 20
2135.215960103576
 30
0.0
 11
2362.128212074144
 21
2135.215960103577
 31
0.0
  0
LINE
  5
57
330
2
100
AcDbEntity
  8
0
 62
     7
 48
0.2281190872192383
100
AcDbLine
 10
2395.038053065988
 20
2137.774925538823
 30
0.0
 11
2531.070607065069
 21
2137.774925538823
 31
0.0
  0
ARC
  5
58
330
2
100
AcDbEntity
  8
0
100
AcDbCircle
 10
2362.128212074144
 20
2127.215960103577
 30
0.0
 40
8.0
100
AcDbArc
 50
90.0
 51
184.6069753527597
  0
ARC
  5
59
330
2
100
AcDbEntity
  8
0
100
AcDbCircle
 10
3606.89736521194
 20
2304.46477657001
 30
0.0
 40
1266.103113099931
100
AcDbArc
 50
189.0543738617882
 51
191.3535735816692
  0
ARC
  5
5A
330
2
100
AcDbEntity
  8
0
100
AcDbCircle
 10
2686.24978956263
 20
2153.33387835333
 30
0.0
 40
333.1721738515235
100
AcDbArc
 50
184.6069753527597
 51
188.3039014410302
  0
LWPOLYLINE
  5
5B
330
2
100
AcDbEntity
  8
0
 62
     7
100
AcDbPolyline
 90
       30
 70
     0
 43
0.0
 10
2347.082395107004
 20
2162.29726440601
 10
2347.497357875559
 20
2164.263145753666
 10
2348.064618617746
 20
2166.37441284351
 10
2348.79908517048
 20
2168.55947143726
 10
2349.255857021066
 20
2169.71816284351
 10
2350.206769496652
 20
2171.800010988041
 10
2351.257504970285
 20
2173.766563722416
 10
2352.485929042551
 20
2175.788048097416
 10
2353.889646083567
 20
2177.829613038823
 10
2355.267438441965
 20
2179.611046144291
 10
2356.676740199777
 20
2181.24550659351
 10
2358.179212123606
 20
2182.813133546635
 10
2359.772779018137
 20
2184.30800659351
 10
2361.376019984934
 20
2185.660789796635
 10
2363.157453090403
 20
2187.009056398198
 10
2364.923886806223
 20
2188.202843019291
 10
2365.816983730051
 20
2188.755028077885
 10
2368.198163539621
 20
2190.136497804448
 10
2371.353101283762
 20
2191.839805909916
 10
2374.349317104074
 20
2193.322044679447
 10
2377.368222743723
 20
2194.688438722417
 10
2379.381711513254
 20
2195.530723878666
 10
2381.400022060129
 20
2196.321007081791
 10
2383.420377284738
 20
2197.05898315601
 10
2386.535886317941
 20
2198.09462768726
 10
2389.815290004465
 20
2199.052391359135
 10
2393.397519618722
 20
2199.972984620854
 10
2399.180371791574
 20
2201.330528566166
 10
2404.90009072468
 20
2202.516563722416
 10
2408.679898769113
 20
2203.215111085698
  0
ARC
  5
5C
330
2
100
AcDbEntity
  8
0
100
AcDbCircle
 10
2631.372566374053
 20
6421.514006814835
 30
0.0
 40
4272.20283357798
100
AcDbArc
 50
266.5102873118263
 51
266.6260496405848
  0
LINE
  5
5D
330
2
100
AcDbEntity
  8
0
 62
     7
100
AcDbLine
 10
2348.284375697824
 20
2137.774925538823
 30
0.0
 11
2381.813352138254
 21
2137.781090089604
 31
0.0
  0
LINE
  5
5E
330
2
100
AcDbEntity
  8
0
 62
     7
 48
0.0024549130003081
100
AcDbLine
 10
2347.107114345285
 20
2161.480491945073
 30
0.0
 11
2347.086499721262
 21
2161.576500245854
 31
0.0
  0
ARC
  5
5F
330
2
100
AcDbEntity
  8
0
100
AcDbCircle
 10
2349.789598460094
 20
2161.952287644574
 30
0.0
 40
2.729094897747954
100
AcDbArc
 50
172.7379831588228
 51
187.9145868334762
  0
LINE
  5
60
330
2
100
AcDbEntity
  8
0
 62
     7
 48
0.0027182418153725
100
AcDbLine
 10
2350.360318690988
 20
2159.480736085698
 30
0.0
 11
2350.465848476145
 21
2159.454552003666
 31
0.0
  0
LINE
  5
61
330
2
100
AcDbEntity
  8
0
 62
     7
 48
0.0030681033367962
100
AcDbLine
 10
2350.465848476145
 20
2159.454552003666
 30
0.0
 11
2350.585187465402
 21
2159.425926515385
 31
0.0
  0
LINE
  5
62
330
2
100
AcDbEntity
  8
0
 62
     7
 48
0.0031571776784221
100
AcDbLine
 10
2350.585187465402
 20
2159.425926515385
 30
0.0
 11
2350.708173305246
 21
2159.397239991947
 31
0.0
  0
LINE
  5
63
330
2
100
AcDbEntity
  8
0
 62
     7
 48
0.0044104957015959
100
AcDbLine
 10
2350.465848476145
 20
2159.454552003666
 30
0.0
 11
2350.637448817941
 21
2159.413597413823
 31
0.0
  0
LINE
  5
64
330
2
100
AcDbEntity
  8
0
 62
     7
 48
0.0026975131035262
100
AcDbLine
 10
2350.361173183176
 20
2159.480736085698
 30
0.0
 11
2350.465848476145
 21
2159.454552003666
 31
0.0
  0
LWPOLYLINE
  5
65
330
2
100
AcDbEntity
  8
0
 62
     7
100
AcDbPolyline
 90
       11
 70
     0
 43
0.0
 10
2348.284375697824
 20
2137.774925538823
 10
2346.275754482004
 20
2137.805137941167
 10
2344.976453334543
 20
2137.899376222417
 10
2344.143308192941
 20
2138.037193605229
 10
2343.476102382394
 20
2138.23622924976
 10
2342.885556728098
 20
2138.534263917729
 10
2342.440595180246
 20
2138.896202394291
 10
2342.162244350168
 20
2139.238365480229
 10
2341.929685146066
 20
2139.689232179448
 10
2341.787992030832
 20
2140.274864503666
 10
2341.773236781809
 20
2140.549949952885
  0
LWPOLYLINE
  5
66
330
2
100
AcDbEntity
  8
0
 62
     7
100
AcDbPolyline
 90
        3
 70
     0
 43
0.0
 10
2341.773236781809
 20
2140.550804445072
 10
2341.845120937082
 20
2141.168114015385
 10
2342.028699428293
 20
2141.738060304448
  0
LINE
  5
67
330
2
100
AcDbEntity
  8
0
 62
     7
 48
0.0035520920810216
100
AcDbLine
 10
2341.897641689035
 20
2141.119163820073
 30
0.0
 11
2341.953565150949
 21
2141.249779054448
 31
0.0
  0
LINE
  5
68
330
2
100
AcDbEntity
  8
0
 62
     7
 48
0.0001279334812111
100
AcDbLine
 10
2341.895764857981
 20
2141.114403077885
 30
0.0
 11
2341.897641689035
 21
2141.119163820073
 31
0.0
  0
LINE
  5
69
330
2
100
AcDbEntity
  8
0
 62
     7
 48
0.0021521420198763
100
AcDbLine
 10
2341.783399135324
 20
2140.699669191167
 30
0.0
 11
2341.797269374582
 21
2140.784630128667
 31
0.0
  0
LINE
  5
6A
330
2
100
AcDbEntity
  8
0
 62
     7
 48
0.0020619816341482
100
AcDbLine
 10
2341.775418788644
 20
2140.61757690601
 30
0.0
 11
2341.783399135324
 21
2140.699669191167
 31
0.0
  0
LINE
  5
6B
330
2
100
AcDbEntity
  8
0
 62
     7
 48
0.0019782600736754
100
AcDbLine
 10
2341.773282558176
 20
2140.53847534351
 30
0.0
 11
2341.775418788644
 21
2140.61757690601
 31
0.0
  0
LINE
  5
6C
330
2
100
AcDbEntity
  8
0
 62
     7
 48
0.00190803885369
100
AcDbLine
 10
2341.77695992634
 20
2140.462242433354
 30
0.0
 11
2341.773282558176
 21
2140.53847534351
 31
0.0
  0
LINE
  5
6D
330
2
100
AcDbEntity
  8
0
 62
     7
 48
0.0019065331813974
100
AcDbLine
 10
2341.776975185129
 20
2140.461693116948
 30
0.0
 11
2341.773282558176
 21
2140.537864991947
 31
0.0
  0
LINE
  5
6E
330
2
100
AcDbEntity
  8
0
 62
     7
 48
0.0019797853968772
100
AcDbLine
 10
2341.773282558176
 20
2140.537864991947
 30
0.0
 11
2341.775418788644
 21
2140.617027589604
 31
0.0
  0
LINE
  5
6F
330
2
100
AcDbEntity
  8
0
 62
     7
 48
0.0020635003591434
100
AcDbLine
 10
2341.775418788644
 20
2140.617027589604
 30
0.0
 11
2341.783399135324
 21
2140.699180909916
 31
0.0
  0
LINE
  5
70
330
2
100
AcDbEntity
  8
0
 62
     7
 48
0.0021565986728025
100
AcDbLine
 10
2341.783399135324
 20
2140.699180909916
 30
0.0
 11
2341.797254115793
 21
2140.784324952885
 31
0.0
  0
LINE
  5
71
330
2
100
AcDbEntity
  8
0
 62
     7
 48
0.0001277940664604
100
AcDbLine
 10
2341.895764857981
 20
2141.114097902104
 30
0.0
 11
2341.897626430246
 21
2141.118858644291
 31
0.0
  0
LINE
  5
72
330
2
100
AcDbEntity
  8
0
 62
     7
 48
0.0035567507415182
100
AcDbLine
 10
2341.897626430246
 20
2141.118858644291
 30
0.0
 11
2341.953595668527
 21
2141.249656984135
 31
0.0
  0
LINE
  5
73
330
2
100
AcDbEntity
  8
0
 62
     7
 48
0.0018080799468364
100
AcDbLine
 10
2341.801816493723
 20
2140.317894288823
 30
0.0
 11
2341.786481410715
 21
2140.38857299976
 31
0.0
  0
LINE
  5
74
330
2
100
AcDbEntity
  8
0
 62
     7
 48
0.0012286031318309
100
AcDbLine
 10
2341.815778285714
 20
2140.270775148198
 30
0.0
 11
2341.801816493723
 21
2140.317894288823
 31
0.0
  0
LINE
  5
75
330
2
100
AcDbEntity
  8
0
 62
     7
 48
0.0005440806840208
100
AcDbLine
 10
2341.822888881418
 20
2140.250206300541
 30
0.0
 11
2341.815778285714
 21
2140.270775148198
 31
0.0
  0
LINE
  5
76
330
2
100
AcDbEntity
  8
0
 62
     7
 48
0.0017510948450361
100
AcDbLine
 10
2341.849729091379
 20
2140.185509034917
 30
0.0
 11
2341.822888881418
 21
2140.250206300541
 31
0.0
  0
LINE
  5
77
330
2
100
AcDbEntity
  8
0
 62
     7
 48
0.0017505645751953
100
AcDbLine
 10
2341.882367641184
 20
2140.123558351322
 30
0.0
 11
2341.849729091379
 21
2140.185509034917
 31
0.0
  0
ARC
  5
78
330
2
100
AcDbEntity
  8
0
 62
     7
100
AcDbCircle
 10
2342.553449184153
 20
2140.522484132572
 30
0.0
 40
0.7807047963142395
100
AcDbArc
 50
210.7304246985818
 51
219.8590390141262
  0
ARC
  5
79
330
2
100
AcDbEntity
  8
0
 62
     7
100
AcDbCircle
 10
2342.559125453683
 20
2140.523887941167
 30
0.0
 40
0.7862319350242615
100
AcDbArc
 50
210.5937797911159
 51
219.6933399941917
  0
LINE
  5
7A
330
2
100
AcDbEntity
  8
0
 62
     7
 48
0.0017434614275826
100
AcDbLine
 10
2341.882352382394
 20
2140.123741456791
 30
0.0
 11
2341.849744350168
 21
2140.185386964604
 31
0.0
  0
LINE
  5
7B
330
2
100
AcDbEntity
  8
0
 62
     7
 48
0.0017496855360244
100
AcDbLine
 10
2341.849744350168
 20
2140.185386964604
 30
0.0
 11
2341.822904140207
 21
2140.250023195073
 31
0.0
  0
LINE
  5
7C
330
2
100
AcDbEntity
  8
0
 62
     7
 48
0.0005427638619712
100
AcDbLine
 10
2341.822904140207
 20
2140.250023195073
 30
0.0
 11
2341.815778285714
 21
2140.270531007573
 31
0.0
  0
LINE
  5
7D
330
2
100
AcDbEntity
  8
0
 62
     7
 48
0.0012272487621835
100
AcDbLine
 10
2341.815778285714
 20
2140.270531007573
 30
0.0
 11
2341.801801234934
 21
2140.317589113041
 31
0.0
  0
LINE
  5
7E
330
2
100
AcDbEntity
  8
0
 62
     7
 48
0.0018049358124455
100
AcDbLine
 10
2341.801801234934
 20
2140.317589113041
 30
0.0
 11
2341.786496669504
 21
2140.388145753666
 31
0.0
  0
LINE
  5
7F
330
2
100
AcDbEntity
  8
0
 62
     7
 48
0.0018570548105009
100
AcDbLine
 10
2341.786481410715
 20
2140.38857299976
 30
0.0
 11
2341.77695992634
 21
2140.462242433354
 31
0.0
  0
LINE
  5
80
330
2
100
AcDbEntity
  8
0
 62
     7
 48
0.001854028268111
100
AcDbLine
 10
2341.786496669504
 20
2140.388145753666
 30
0.0
 11
2341.776975185129
 21
2140.461693116948
 31
0.0
  0
LWPOLYLINE
  5
81
330
2
100
AcDbEntity
  8
0
 62
     7
100
AcDbPolyline
 90
       15
 70
     0
 43
0.0
 10
2342.012525111887
 20
2141.698204347416
 10
2342.469632655832
 20
2142.792747804448
 10
2342.970059901926
 20
2143.868004152104
 10
2343.473554164621
 20
2144.848594972417
 10
2344.013562709543
 20
2145.809532472417
 10
2344.767285854074
 20
2147.02382690601
 10
2345.545743495676
 20
2148.152916261479
 10
2346.337628871653
 20
2149.19619018726
 10
2347.124097377512
 20
2150.146019288823
 10
2348.575284511301
 20
2151.716331788823
 10
2349.986768275949
 20
2153.065574952885
 10
2351.486997157785
 20
2154.359337159916
 10
2353.22584298298
 20
2155.730675050541
 10
2355.190763026926
 20
2157.163231202885
 10
2357.042493373606
 20
2158.424949952885
  0
LWPOLYLINE
  5
82
330
2
100
AcDbEntity
  8
0
 62
     7
100
AcDbPolyline
 90
       13
 70
     0
 43
0.0
 10
2347.107099086496
 20
2161.480614015385
 10
2347.308362514231
 20
2160.991966554448
 10
2347.464368373605
 20
2160.76699096851
 10
2347.800000697824
 20
2160.433128663823
 10
2348.303708583566
 20
2160.110130616947
 10
2348.913388759347
 20
2159.847374269291
 10
2349.892758876535
 20
2159.550499269291
 10
2351.23382332966
 20
2159.252708741948
 10
2353.37136605427
 20
2158.892845460698
 10
2356.40032723591
 20
2158.498070070073
 10
2360.778928310129
 20
2158.047020265385
 10
2366.899243861887
 20
2157.542320558354
 10
2371.326459438058
 20
2157.232933351323
  0
LINE
  5
83
330
2
100
AcDbEntity
  8
0
 62
     7
100
AcDbLine
 10
2348.284375697824
 20
2137.774925538823
 30
0.0
 11
2376.338071376535
 21
2137.774925538823
 31
0.0
  0
LINE
  5
84
330
2
100
AcDbEntity
  8
0
 62
     7
 48
0.0038028717041016
100
AcDbLine
 10
2400.925122768137
 20
2137.774925538823
 30
0.0
 11
2401.077237636301
 21
2137.774925538823
 31
0.0
  0
LINE
  5
85
330
2
100
AcDbEntity
  8
0
 62
     7
 48
0.1985099792480469
100
AcDbLine
 10
2395.194242030832
 20
2137.774925538823
 30
0.0
 11
2403.134641200754
 21
2137.774925538823
 31
0.0
  0
LINE
  5
86
330
2
100
AcDbEntity
  8
0
 62
     7
 48
0.2281347274780273
100
AcDbLine
 10
2395.037427455636
 20
2137.774925538823
 30
0.0
 11
2404.162816554758
 21
2137.774925538823
 31
0.0
  0
LINE
  5
87
330
2
100
AcDbEntity
  8
0
 62
     7
 48
0.0039665222167969
100
AcDbLine
 10
2400.299466640207
 20
2137.774925538823
 30
0.0
 11
2400.458127528879
 21
2137.774925538823
 31
0.0
  0
LINE
  5
88
330
2
100
AcDbEntity
  8
0
 62
     7
 48
0.0039318084716797
100
AcDbLine
 10
2400.458127528879
 20
2137.774925538823
 30
0.0
 11
2400.615399867746
 21
2137.774925538823
 31
0.0
  0
LINE
  5
89
330
2
100
AcDbEntity
  8
0
 62
     7
 48
0.0038928985595703
100
AcDbLine
 10
2400.615399867746
 20
2137.774925538823
 30
0.0
 11
2400.771115810129
 21
2137.774925538823
 31
0.0
  0
LINE
  5
8A
330
2
100
AcDbEntity
  8
0
 62
     7
 48
0.0038501739501953
100
AcDbLine
 10
2400.771115810129
 20
2137.774925538823
 30
0.0
 11
2400.925122768137
 21
2137.774925538823
 31
0.0
  0
LINE
  5
8B
330
2
100
AcDbEntity
  8
0
 62
     7
 48
0.0036964416503906
100
AcDbLine
 10
2396.95371773884
 20
2137.774925538823
 30
0.0
 11
2397.101575404855
 21
2137.774925538823
 31
0.0
  0
LINE
  5
8C
330
2
100
AcDbEntity
  8
0
 62
     7
 48
0.0026550521246707
100
AcDbLine
 10
2394.943799525949
 20
2137.725364991948
 30
0.0
 11
2395.03753426716
 21
2137.77529174976
 31
0.0
  0
LINE
  5
8D
330
2
100
AcDbEntity
  8
0
 62
     7
 48
0.0016029357910156
100
AcDbLine
 10
2395.037412196848
 20
2137.774925538823
 30
0.0
 11
2395.101529628488
 21
2137.774925538823
 31
0.0
  0
LINE
  5
8E
330
2
100
AcDbEntity
  8
0
 62
     7
 48
0.0024356842041016
100
AcDbLine
 10
2395.101529628488
 20
2137.774925538823
 30
0.0
 11
2395.198956996652
 21
2137.774925538823
 31
0.0
  0
LINE
  5
8F
330
2
100
AcDbEntity
  8
0
 62
     7
 48
0.0025421142578125
100
AcDbLine
 10
2395.198956996652
 20
2137.774925538823
 30
0.0
 11
2395.300641566965
 21
2137.774925538823
 31
0.0
  0
LINE
  5
90
330
2
100
AcDbEntity
  8
0
 62
     7
 48
0.0026454925537109
100
AcDbLine
 10
2395.300641566965
 20
2137.774925538823
 30
0.0
 11
2395.406461269113
 21
2137.774925538823
 31
0.0
  0
LINE
  5
91
330
2
100
AcDbEntity
  8
0
 62
     7
 48
0.0027462005615234
100
AcDbLine
 10
2395.406461269113
 20
2137.774925538823
 30
0.0
 11
2395.516309291574
 21
2137.774925538823
 31
0.0
  0
LINE
  5
92
330
2
100
AcDbEntity
  8
0
 62
     7
 48
0.0028434753417969
100
AcDbLine
 10
2395.516309291574
 20
2137.774925538823
 30
0.0
 11
2395.630048305246
 21
2137.774925538823
 31
0.0
  0
LINE
  5
93
330
2
100
AcDbEntity
  8
0
 62
     7
 48
0.0029384613037109
100
AcDbLine
 10
2395.630048305246
 20
2137.774925538823
 30
0.0
 11
2395.747586757394
 21
2137.774925538823
 31
0.0
  0
LINE
  5
94
330
2
100
AcDbEntity
  8
0
 62
     7
 48
0.0030300140380859
100
AcDbLine
 10
2395.747586757394
 20
2137.774925538823
 30
0.0
 11
2395.868787318918
 21
2137.774925538823
 31
0.0
  0
LINE
  5
95
330
2
100
AcDbEntity
  8
0
 62
     7
 48
0.0031177520751953
100
AcDbLine
 10
2395.868787318918
 20
2137.774925538823
 30
0.0
 11
2395.993497401926
 21
2137.774925538823
 31
0.0
  0
LINE
  5
96
330
2
100
AcDbEntity
  8
0
 62
     7
 48
0.0032032012939453
100
AcDbLine
 10
2395.993497401926
 20
2137.774925538823
 30
0.0
 11
2396.121625453683
 21
2137.774925538823
 31
0.0
  0
LINE
  5
97
330
2
100
AcDbEntity
  8
0
 62
     7
 48
0.0032844543457031
100
AcDbLine
 10
2396.121625453683
 20
2137.774925538823
 30
0.0
 11
2396.253003627512
 21
2137.774925538823
 31
0.0
  0
LINE
  5
98
330
2
100
AcDbEntity
  8
0
 62
     7
 48
0.0033622741699219
100
AcDbLine
 10
2396.253003627512
 20
2137.774925538823
 30
0.0
 11
2396.387494594308
 21
2137.774925538823
 31
0.0
  0
LINE
  5
99
330
2
100
AcDbEntity
  8
0
 62
     7
 48
0.0034366607666016
100
AcDbLine
 10
2396.387494594308
 20
2137.774925538823
 30
0.0
 11
2396.524961024973
 21
2137.774925538823
 31
0.0
  0
LINE
  5
9A
330
2
100
AcDbEntity
  8
0
 62
     7
 48
0.0035076141357422
100
AcDbLine
 10
2396.524961024973
 20
2137.774925538823
 30
0.0
 11
2396.665265590403
 21
2137.774925538823
 31
0.0
  0
LINE
  5
9B
330
2
100
AcDbEntity
  8
0
 62
     7
 48
0.0035739898681641
100
AcDbLine
 10
2396.665265590403
 20
2137.774925538823
 30
0.0
 11
2396.808225185129
 21
2137.774925538823
 31
0.0
  0
LINE
  5
9C
330
2
100
AcDbEntity
  8
0
 62
     7
 48
0.0036373138427734
100
AcDbLine
 10
2396.808225185129
 20
2137.774925538823
 30
0.0
 11
2396.95371773884
 21
2137.774925538823
 31
0.0
  0
LINE
  5
9D
330
2
100
AcDbEntity
  8
0
 62
     7
 48
0.0006471080458428
100
AcDbLine
 10
2395.014279872629
 20
2137.762657472416
 30
0.0
 11
2395.037137538645
 21
2137.77480346851
 31
0.0
  0
LINE
  5
9E
330
2
100
AcDbEntity
  8
0
 62
     7
 48
0.0010221441994556
100
AcDbLine
 10
2394.97813180134
 20
2137.74355346851
 30
0.0
 11
2395.014279872629
 21
2137.762657472416
 31
0.0
  0
LINE
  5
9F
330
2
100
AcDbEntity
  8
0
 62
     7
 48
0.0041000366210938
100
AcDbLine
 10
2399.16383126423
 20
2137.774925538823
 30
0.0
 11
2399.327832729074
 21
2137.774925538823
 31
0.0
  0
LINE
  5
A0
330
2
100
AcDbEntity
  8
0
 62
     7
 48
0.0040901184082031
100
AcDbLine
 10
2399.327832729074
 20
2137.774925538823
 30
0.0
 11
2399.491437465402
 21
2137.774925538823
 31
0.0
  0
LINE
  5
A1
330
2
100
AcDbEntity
  8
0
 62
     7
 48
0.0040790557861328
100
AcDbLine
 10
2399.491437465402
 20
2137.774925538823
 30
0.0
 11
2399.654599696848
 21
2137.774925538823
 31
0.0
  0
LINE
  5
A2
330
2
100
AcDbEntity
  8
0
 62
     7
 48
0.0040603637695313
100
AcDbLine
 10
2399.654599696848
 20
2137.774925538823
 30
0.0
 11
2399.817014247629
 21
2137.774925538823
 31
0.0
  0
LINE
  5
A3
330
2
100
AcDbEntity
  8
0
 62
     7
 48
0.0040431976318359
100
AcDbLine
 10
2399.817014247629
 20
2137.774925538823
 30
0.0
 11
2399.978742152903
 21
2137.774925538823
 31
0.0
  0
LINE
  5
A4
330
2
100
AcDbEntity
  8
0
 62
     7
 48
0.0040218353271484
100
AcDbLine
 10
2399.978742152903
 20
2137.774925538823
 30
0.0
 11
2400.139615565988
 21
2137.774925538823
 31
0.0
  0
LINE
  5
A5
330
2
100
AcDbEntity
  8
0
 62
     7
 48
0.0037517547607422
100
AcDbLine
 10
2397.101575404855
 20
2137.774925538823
 30
0.0
 11
2397.251645595285
 21
2137.774925538823
 31
0.0
  0
LINE
  5
A6
330
2
100
AcDbEntity
  8
0
 62
     7
 48
0.0038028717041016
100
AcDbLine
 10
2397.251645595285
 20
2137.774925538823
 30
0.0
 11
2397.403760463449
 21
2137.774925538823
 31
0.0
  0
LINE
  5
A7
330
2
100
AcDbEntity
  8
0
 62
     7
 48
0.0038501739501953
100
AcDbLine
 10
2397.403760463449
 20
2137.774925538823
 30
0.0
 11
2397.557767421457
 21
2137.774925538823
 31
0.0
  0
LINE
  5
A8
330
2
100
AcDbEntity
  8
0
 62
     7
 48
0.0038932800292969
100
AcDbLine
 10
2397.557767421457
 20
2137.774925538823
 30
0.0
 11
2397.713498622629
 21
2137.774925538823
 31
0.0
  0
LINE
  5
A9
330
2
100
AcDbEntity
  8
0
 62
     7
 48
0.0039318084716797
100
AcDbLine
 10
2397.713498622629
 20
2137.774925538823
 30
0.0
 11
2397.870770961496
 21
2137.774925538823
 31
0.0
  0
LINE
  5
AA
330
2
100
AcDbEntity
  8
0
 62
     7
 48
0.0039665222167969
100
AcDbLine
 10
2397.870770961496
 20
2137.774925538823
 30
0.0
 11
2398.029431850168
 21
2137.774925538823
 31
0.0
  0
LINE
  5
AB
330
2
100
AcDbEntity
  8
0
 62
     7
 48
0.0039970397949219
100
AcDbLine
 10
2398.029431850168
 20
2137.774925538823
 30
0.0
 11
2398.189313441965
 21
2137.774925538823
 31
0.0
  0
LINE
  5
AC
330
2
100
AcDbEntity
  8
0
 62
     7
 48
0.0040229797363281
100
AcDbLine
 10
2398.189313441965
 20
2137.774925538823
 30
0.0
 11
2398.350232631418
 21
2137.774925538823
 31
0.0
  0
LINE
  5
AD
330
2
100
AcDbEntity
  8
0
 62
     7
 48
0.0040447235107422
100
AcDbLine
 10
2398.350232631418
 20
2137.774925538823
 30
0.0
 11
2398.512021571848
 21
2137.774925538823
 31
0.0
  0
LINE
  5
AE
330
2
100
AcDbEntity
  8
0
 62
     7
 48
0.0040622711181641
100
AcDbLine
 10
2398.512021571848
 20
2137.774925538823
 30
0.0
 11
2398.674512416574
 21
2137.774925538823
 31
0.0
  0
LINE
  5
AF
330
2
100
AcDbEntity
  8
0
 62
     7
 48
0.0040706634521484
100
AcDbLine
 10
2398.674512416574
 20
2137.774925538823
 30
0.0
 11
2398.83733895466
 21
2137.774925538823
 31
0.0
  0
LINE
  5
B0
330
2
100
AcDbEntity
  8
0
 62
     7
 48
0.0040786743164063
100
AcDbLine
 10
2398.83733895466
 20
2137.774925538823
 30
0.0
 11
2399.000485927316
 21
2137.774925538823
 31
0.0
  0
LINE
  5
B1
330
2
100
AcDbEntity
  8
0
 62
     7
 48
0.0040836334228516
100
AcDbLine
 10
2399.000485927316
 20
2137.774925538823
 30
0.0
 11
2399.16383126423
 21
2137.774925538823
 31
0.0
  0
LINE
  5
B2
330
2
100
AcDbEntity
  8
0
 62
     7
 48
0.0039962768554688
100
AcDbLine
 10
2400.139615565988
 20
2137.774925538823
 30
0.0
 11
2400.299466640207
 21
2137.774925538823
 31
0.0
  0
LINE
  5
B3
330
2
100
AcDbEntity
  8
0
 62
     7
 48
0.0037517547607422
100
AcDbLine
 10
2401.077237636301
 20
2137.774925538823
 30
0.0
 11
2401.227307826731
 21
2137.774925538823
 31
0.0
  0
LINE
  5
B4
330
2
100
AcDbEntity
  8
0
 62
     7
 48
0.0036964416503906
100
AcDbLine
 10
2401.227307826731
 20
2137.774925538823
 30
0.0
 11
2401.375165492746
 21
2137.774925538823
 31
0.0
  0
LINE
  5
B5
330
2
100
AcDbEntity
  8
0
 62
     7
 48
0.0036373138427734
100
AcDbLine
 10
2401.375165492746
 20
2137.774925538823
 30
0.0
 11
2401.520658046457
 21
2137.774925538823
 31
0.0
  0
LINE
  5
B6
330
2
100
AcDbEntity
  8
0
 62
     7
 48
0.0035743713378906
100
AcDbLine
 10
2401.520658046457
 20
2137.774925538823
 30
0.0
 11
2401.663632899973
 21
2137.774925538823
 31
0.0
  0
LINE
  5
B7
330
2
100
AcDbEntity
  8
0
 62
     7
 48
0.0035072326660156
100
AcDbLine
 10
2401.663632899973
 20
2137.774925538823
 30
0.0
 11
2401.803922206613
 21
2137.774925538823
 31
0.0
  0
LINE
  5
B8
330
2
100
AcDbEntity
  8
0
 62
     7
 48
0.0034366607666016
100
AcDbLine
 10
2401.803922206613
 20
2137.774925538823
 30
0.0
 11
2401.941388637277
 21
2137.774925538823
 31
0.0
  0
LINE
  5
B9
330
2
100
AcDbEntity
  8
0
 62
     7
 48
0.0033626556396484
100
AcDbLine
 10
2401.941388637277
 20
2137.774925538823
 30
0.0
 11
2402.075894862863
 21
2137.774925538823
 31
0.0
  0
LINE
  5
BA
330
2
100
AcDbEntity
  8
0
 62
     7
 48
0.0032840728759766
100
AcDbLine
 10
2402.075894862863
 20
2137.774925538823
 30
0.0
 11
2402.207257777902
 21
2137.774925538823
 31
0.0
  0
LINE
  5
BB
330
2
100
AcDbEntity
  8
0
 62
     7
 48
0.0032032012939453
100
AcDbLine
 10
2402.207257777902
 20
2137.774925538823
 30
0.0
 11
2402.33538582966
 21
2137.774925538823
 31
0.0
  0
LINE
  5
BC
330
2
100
AcDbEntity
  8
0
 62
     7
 48
0.0031177520751953
100
AcDbLine
 10
2402.33538582966
 20
2137.774925538823
 30
0.0
 11
2402.460095912668
 21
2137.774925538823
 31
0.0
  0
LINE
  5
BD
330
2
100
AcDbEntity
  8
0
 62
     7
 48
0.0030300140380859
100
AcDbLine
 10
2402.460095912668
 20
2137.774925538823
 30
0.0
 11
2402.581296474191
 21
2137.774925538823
 31
0.0
  0
LINE
  5
BE
330
2
100
AcDbEntity
  8
0
 62
     7
 48
0.0029384613037109
100
AcDbLine
 10
2402.581296474191
 20
2137.774925538823
 30
0.0
 11
2402.69883492634
 21
2137.774925538823
 31
0.0
  0
LINE
  5
BF
330
2
100
AcDbEntity
  8
0
 62
     7
 48
0.0028438568115234
100
AcDbLine
 10
2402.69883492634
 20
2137.774925538823
 30
0.0
 11
2402.812589198801
 21
2137.774925538823
 31
0.0
  0
LINE
  5
C0
330
2
100
AcDbEntity
  8
0
 62
     7
 48
0.0027458190917969
100
AcDbLine
 10
2402.812589198801
 20
2137.774925538823
 30
0.0
 11
2402.922421962473
 21
2137.774925538823
 31
0.0
  0
LINE
  5
C1
330
2
100
AcDbEntity
  8
0
 62
     7
 48
0.0026454925537109
100
AcDbLine
 10
2402.922421962473
 20
2137.774925538823
 30
0.0
 11
2403.028241664621
 21
2137.774925538823
 31
0.0
  0
LINE
  5
C2
330
2
100
AcDbEntity
  8
0
 62
     7
 48
0.0025421142578125
100
AcDbLine
 10
2403.028241664621
 20
2137.774925538823
 30
0.0
 11
2403.129926234933
 21
2137.774925538823
 31
0.0
  0
LINE
  5
C3
330
2
100
AcDbEntity
  8
0
 62
     7
 48
0.0024358749389648
100
AcDbLine
 10
2403.129926234933
 20
2137.774925538823
 30
0.0
 11
2403.227361232492
 21
2137.774925538823
 31
0.0
  0
LINE
  5
C4
330
2
100
AcDbEntity
  8
0
 62
     7
 48
0.0023271560668945
100
AcDbLine
 10
2403.227361232492
 20
2137.774925538823
 30
0.0
 11
2403.320447475168
 21
2137.774925538823
 31
0.0
  0
LINE
  5
C5
330
2
100
AcDbEntity
  8
0
 62
     7
 48
0.0022157669067383
100
AcDbLine
 10
2403.320447475168
 20
2137.774925538823
 30
0.0
 11
2403.409078151438
 21
2137.774925538823
 31
0.0
  0
LINE
  5
C6
330
2
100
AcDbEntity
  8
0
 62
     7
 48
0.0021022796630859
100
AcDbLine
 10
2403.409078151438
 20
2137.774925538823
 30
0.0
 11
2403.493169337961
 21
2137.774925538823
 31
0.0
  0
LINE
  5
C7
330
2
100
AcDbEntity
  8
0
 62
     7
 48
0.0019863128662109
100
AcDbLine
 10
2403.493169337961
 20
2137.774925538823
 30
0.0
 11
2403.572621852609
 21
2137.774925538823
 31
0.0
  0
LINE
  5
C8
330
2
100
AcDbEntity
  8
0
 62
     7
 48
0.0018682479858398
100
AcDbLine
 10
2403.572621852609
 20
2137.774925538823
 30
0.0
 11
2403.647351772043
 21
2137.774925538823
 31
0.0
  0
LINE
  5
C9
330
2
100
AcDbEntity
  8
0
 62
     7
 48
0.0017484664916992
100
AcDbLine
 10
2403.647351772043
 20
2137.774925538823
 30
0.0
 11
2403.717290431711
 21
2137.774925538823
 31
0.0
  0
LINE
  5
CA
330
2
100
AcDbEntity
  8
0
 62
     7
 48
0.0016262054443359
100
AcDbLine
 10
2403.717290431711
 20
2137.774925538823
 30
0.0
 11
2403.782338649484
 21
2137.774925538823
 31
0.0
  0
LINE
  5
CB
330
2
100
AcDbEntity
  8
0
 62
     7
 48
0.001502799987793
100
AcDbLine
 10
2403.782338649484
 20
2137.774925538823
 30
0.0
 11
2403.842450648996
 21
2137.774925538823
 31
0.0
  0
LINE
  5
CC
330
2
100
AcDbEntity
  8
0
 62
     7
 48
0.0013776779174805
100
AcDbLine
 10
2403.842450648996
 20
2137.774925538823
 30
0.0
 11
2403.897557765695
 21
2137.774925538823
 31
0.0
  0
LINE
  5
CD
330
2
100
AcDbEntity
  8
0
 62
     7
 48
0.0012508392333984
100
AcDbLine
 10
2403.897557765695
 20
2137.774925538823
 30
0.0
 11
2403.947591335031
 21
2137.774925538823
 31
0.0
  0
LINE
  5
CE
330
2
100
AcDbEntity
  8
0
 62
     7
 48
0.0011228561401367
100
AcDbLine
 10
2403.947591335031
 20
2137.774925538823
 30
0.0
 11
2403.992505580637
 21
2137.774925538823
 31
0.0
  0
LINE
  5
CF
330
2
100
AcDbEntity
  8
0
 62
     7
 48
0.000993537902832
100
AcDbLine
 10
2403.992505580637
 20
2137.774925538823
 30
0.0
 11
2404.03224709675
 21
2137.774925538823
 31
0.0
  0
LINE
  5
D0
330
2
100
AcDbEntity
  8
0
 62
     7
 48
0.0008632659912109
100
AcDbLine
 10
2404.03224709675
 20
2137.774925538823
 30
0.0
 11
2404.066777736399
 21
2137.774925538823
 31
0.0
  0
LINE
  5
D1
330
2
100
AcDbEntity
  8
0
 62
     7
 48
0.0008625030517578
100
AcDbLine
 10
2404.066777736399
 20
2137.774925538823
 30
0.0
 11
2404.101277858469
 21
2137.774925538823
 31
0.0
  0
LINE
  5
D2
330
2
100
AcDbEntity
  8
0
 62
     7
 48
0.0006725311279297
100
AcDbLine
 10
2404.101277858469
 20
2137.774925538823
 30
0.0
 11
2404.128179103586
 21
2137.774925538823
 31
0.0
  0
LINE
  5
D3
330
2
100
AcDbEntity
  8
0
 62
     7
 48
0.000480842590332
100
AcDbLine
 10
2404.128179103586
 20
2137.774925538823
 30
0.0
 11
2404.1474128072
 21
2137.774925538823
 31
0.0
  0
LINE
  5
D4
330
2
100
AcDbEntity
  8
0
 62
     7
 48
0.0002891540527344
100
AcDbLine
 10
2404.1474128072
 20
2137.774925538823
 30
0.0
 11
2404.158978969309
 21
2137.774925538823
 31
0.0
  0
LINE
  5
D5
330
2
100
AcDbEntity
  8
0
 62
     7
 48
0.0000959396362305
100
AcDbLine
 10
2404.158978969309
 20
2137.774925538823
 30
0.0
 11
2404.162816554758
 21
2137.774925538823
 31
0.0
  0
LINE
  5
D6
330
2
100
AcDbEntity
  8
0
 62
     7
 48
0.004683450909541
100
AcDbLine
 10
2390.237790614816
 20
2136.334923097416
 30
0.0
 11
2390.423184901926
 21
2136.361839601323
 31
0.0
  0
LINE
  5
D7
330
2
100
AcDbEntity
  8
0
 62
     7
 48
0.0042236522614853
100
AcDbLine
 10
2390.237866908762
 20
2136.334801027104
 30
0.0
 11
2390.40505746052
 21
2136.359093019291
 31
0.0
  0
LINE
  5
D8
330
2
100
AcDbEntity
  8
0
 62
     7
 48
0.0062916484193706
100
AcDbLine
 10
2389.988431483957
 20
2136.300926515385
 30
0.0
 11
2390.237790614816
 21
2136.334923097416
 31
0.0
  0
LINE
  5
D9
330
2
100
AcDbEntity
  8
0
 62
     7
 48
0.0061451478155884
100
AcDbLine
 10
2389.744534999582
 20
2136.270347902104
 30
0.0
 11
2389.988431483957
 21
2136.300926515385
 31
0.0
  0
LINE
  5
DA
330
2
100
AcDbEntity
  8
0
 62
     7
 48
0.0053823859546841
100
AcDbLine
 10
2390.024549037668
 20
2136.305687257573
 30
0.0
 11
2390.237866908762
 21
2136.334801027104
 31
0.0
  0
LINE
  5
DB
330
2
100
AcDbEntity
  8
0
 62
     7
 48
0.003984569184425
100
AcDbLine
 10
2389.866483241769
 20
2136.285240480229
 30
0.0
 11
2390.024549037668
 21
2136.305687257573
 31
0.0
  0
LINE
  5
DC
330
2
100
AcDbEntity
  8
0
 62
     7
 48
0.0065737039008479
100
AcDbLine
 10
2389.605420619699
 20
2136.25380737476
 30
0.0
 11
2389.866483241769
 21
2136.285240480229
 31
0.0
  0
LINE
  5
DD
330
2
100
AcDbEntity
  8
0
 62
     7
 48
0.0031910299012998
100
AcDbLine
 10
2386.364652187082
 20
2136.146690675541
 30
0.0
 11
2386.49163582966
 21
2136.133751222416
 31
0.0
  0
LINE
  5
DE
330
2
100
AcDbEntity
  8
0
 62
     7
 48
0.0010540201141884
100
AcDbLine
 10
2386.385419398996
 20
2136.144249269292
 30
0.0
 11
2386.42735055134
 21
2136.139854738041
 31
0.0
  0
LINE
  5
DF
330
2
100
AcDbEntity
  8
0
 62
     7
 48
0.0030064438449716
100
AcDbLine
 10
2386.24537423298
 20
2136.16201049976
 30
0.0
 11
2386.364652187082
 21
2136.146690675541
 31
0.0
  0
LINE
  5
E0
330
2
100
AcDbEntity
  8
0
 62
     7
 48
0.0028104902421883
100
AcDbLine
 10
2386.134366542551
 20
2136.179771730229
 30
0.0
 11
2386.24537423298
 21
2136.16201049976
 31
0.0
  0
LINE
  5
E1
330
2
100
AcDbEntity
  8
0
 62
     7
 48
0.0026331845026093
100
AcDbLine
 10
2386.031018764231
 20
2136.20009643726
 30
0.0
 11
2386.134366542551
 21
2136.179771730229
 31
0.0
  0
LINE
  5
E2
330
2
100
AcDbEntity
  8
0
 62
     7
 48
0.0024481533517153
100
AcDbLine
 10
2385.935834438059
 20
2136.223106691166
 30
0.0
 11
2386.031018764231
 21
2136.20009643726
 31
0.0
  0
LINE
  5
E3
330
2
100
AcDbEntity
  8
0
 62
     7
 48
0.002252886215788
100
AcDbLine
 10
2385.849423915598
 20
2136.248680421635
 30
0.0
 11
2385.935834438059
 21
2136.223106691166
 31
0.0
  0
LINE
  5
E4
330
2
100
AcDbEntity
  8
0
 62
     7
 48
0.0020851497109627
100
AcDbLine
 10
2385.771039516183
 20
2136.277183839604
 30
0.0
 11
2385.849423915598
 21
2136.248680421635
 31
0.0
  0
LINE
  5
E5
330
2
100
AcDbEntity
  8
0
 62
     7
 48
0.0019380139872758
100
AcDbLine
 10
2385.700177699777
 20
2136.308616945073
 30
0.0
 11
2385.771039516183
 21
2136.277183839604
 31
0.0
  0
LINE
  5
E6
330
2
100
AcDbEntity
  8
0
 62
     7
 48
0.0013248663279049
100
AcDbLine
 10
2385.653562099191
 20
2136.333824464604
 30
0.0
 11
2385.700177699777
 21
2136.308616945073
 31
0.0
  0
LINE
  5
E7
330
2
100
AcDbEntity
  8
0
 62
     7
 48
0.0011256209836209
100
AcDbLine
 10
2385.615613490793
 20
2136.358055421635
 30
0.0
 11
2385.653562099191
 21
2136.333824464604
 31
0.0
  0
LINE
  5
E8
330
2
100
AcDbEntity
  8
0
 62
     7
 48
0.0035293607344824
100
AcDbLine
 10
2386.245358974191
 20
2136.161949464604
 30
0.0
 11
2386.385419398996
 21
2136.144249269292
 31
0.0
  0
LINE
  5
E9
330
2
100
AcDbEntity
  8
0
 62
     7
 48
0.0021083159183205
100
AcDbLine
 10
2386.162015468332
 20
2136.174827882573
 30
0.0
 11
2386.245358974191
 21
2136.161949464604
 31
0.0
  0
LINE
  5
EA
330
2
100
AcDbEntity
  8
0
 62
     7
 48
0.0020437023341474
100
AcDbLine
 10
2386.081601649972
 20
2136.189537355229
 30
0.0
 11
2386.162015468332
 21
2136.174827882573
 31
0.0
  0
LINE
  5
EB
330
2
100
AcDbEntity
  8
0
 62
     7
 48
0.0028636060370892
100
AcDbLine
 10
2385.969769984933
 20
2136.214317628666
 30
0.0
 11
2386.081601649972
 21
2136.189537355229
 31
0.0
  0
LINE
  5
EC
330
2
100
AcDbEntity
  8
0
 62
     7
 48
0.0008730441206477
100
AcDbLine
 10
2385.935956508371
 20
2136.22304565601
 30
0.0
 11
2385.969769984933
 21
2136.214317628666
 31
0.0
  0
ARC
  5
ED
330
2
100
AcDbEntity
  8
0
 62
     7
100
AcDbCircle
 10
2386.336545497629
 20
2137.733177491948
 30
0.0
 40
1.562339663505554
100
AcDbArc
 50
250.5572908181003
 51
255.1434625249693
  0
LINE
  5
EE
330
2
100
AcDbEntity
  8
0
 62
     7
 48
0.0001848581985444
100
AcDbLine
 10
2385.809537440988
 20
2136.262474366948
 30
0.0
 11
2385.816495448801
 21
2136.259971925541
 31
0.0
  0
ARC
  5
EF
330
2
100
AcDbEntity
  8
0
 62
     7
100
AcDbCircle
 10
2386.165524989816
 20
2137.258995363041
 30
0.0
 40
1.058168411254882
100
AcDbArc
 50
243.9491027290523
 51
250.3418040622216
  0
LINE
  5
F0
330
2
100
AcDbEntity
  8
0
 62
     7
 48
0.0017539506783944
100
AcDbLine
 10
2385.638974696848
 20
2136.342552491948
 30
0.0
 11
2385.700345546457
 21
2136.308555909916
 31
0.0
  0
LINE
  5
F1
330
2
100
AcDbEntity
  8
0
 62
     7
 48
0.0006888092704817
100
AcDbLine
 10
2385.615872890207
 20
2136.357567140385
 30
0.0
 11
2385.638974696848
 21
2136.342552491948
 31
0.0
  0
LINE
  5
F2
330
2
100
AcDbEntity
  8
0
 62
     7
 48
0.0000330098078198
100
AcDbLine
 10
2385.614774257394
 20
2136.35829956226
 30
0.0
 11
2385.615872890207
 21
2136.357567140385
 31
0.0
  0
LINE
  5
F3
330
2
100
AcDbEntity
  8
0
 62
     7
 48
0.0059358654749679
100
AcDbLine
 10
2389.269620448801
 20
2136.217491456791
 30
0.0
 11
2389.505719691965
 21
2136.242637941167
 31
0.0
  0
LINE
  5
F4
330
2
100
AcDbEntity
  8
0
 62
     7
 48
0.0057824990576028
100
AcDbLine
 10
2389.039395839426
 20
2136.19521362476
 30
0.0
 11
2389.269620448801
 21
2136.217491456791
 31
0.0
  0
LINE
  5
F5
330
2
100
AcDbEntity
  8
0
 62
     7
 48
0.0056342960453103
100
AcDbLine
 10
2388.814893275949
 20
2136.175438234135
 30
0.0
 11
2389.039395839426
 21
2136.19521362476
 31
0.0
  0
LINE
  5
F6
330
2
100
AcDbEntity
  8
0
 62
     7
 48
0.005497061353562
100
AcDbLine
 10
2388.595685512278
 20
2136.158226320073
 30
0.0
 11
2388.814893275949
 21
2136.175438234135
 31
0.0
  0
LINE
  5
F7
330
2
100
AcDbEntity
  8
0
 62
     7
 48
0.0053281046068698
100
AcDbLine
 10
2388.383069545481
 20
2136.143516847416
 30
0.0
 11
2388.595685512278
 21
2136.158226320073
 31
0.0
  0
LINE
  5
F8
330
2
100
AcDbEntity
  8
0
 62
     7
 48
0.005174379788801
100
AcDbLine
 10
2388.176465541574
 20
2136.131126710698
 30
0.0
 11
2388.383069545481
 21
2136.143516847416
 31
0.0
  0
LINE
  5
F9
330
2
100
AcDbEntity
  8
0
 62
     7
 48
0.0050114400434052
100
AcDbLine
 10
2387.976254970285
 20
2136.121177980229
 30
0.0
 11
2388.176465541574
 21
2136.131126710698
 31
0.0
  0
LINE
  5
FA
330
2
100
AcDbEntity
  8
0
 62
     7
 48
0.0048505067379407
100
AcDbLine
 10
2387.782392055246
 20
2136.113365480229
 30
0.0
 11
2387.976254970285
 21
2136.121177980229
 31
0.0
  0
LINE
  5
FB
330
2
100
AcDbEntity
  8
0
 62
     7
 48
0.0046684070162203
100
AcDbLine
 10
2387.595731288644
 20
2136.108055421635
 30
0.0
 11
2387.782392055246
 21
2136.113365480229
 31
0.0
  0
LINE
  5
FC
330
2
100
AcDbEntity
  8
0
 62
     7
 48
0.0042464434815055
100
AcDbLine
 10
2387.425900966379
 20
2136.105003663823
 30
0.0
 11
2387.595731288644
 21
2136.108055421635
 31
0.0
  0
LINE
  5
FD
330
2
100
AcDbEntity
  8
0
 62
     7
 48
0.0040852322537631
100
AcDbLine
 10
2387.262494594309
 20
2136.104027101322
 30
0.0
 11
2387.425900966379
 21
2136.105003663823
 31
0.0
  0
LINE
  5
FE
330
2
100
AcDbEntity
  8
0
 62
     7
 48
0.0023410921436792
100
AcDbLine
 10
2387.168851405832
 20
2136.104332277104
 30
0.0
 11
2387.262494594309
 21
2136.104027101322
 31
0.0
  0
LINE
  5
FF
330
2
100
AcDbEntity
  8
0
 62
     7
 48
0.0022771773580667
100
AcDbLine
 10
2387.077771693918
 20
2136.105491945073
 30
0.0
 11
2387.168851405832
 21
2136.104332277104
 31
0.0
  0
LINE
  5
100
330
2
100
AcDbEntity
  8
0
 62
     7
 48
0.0039537799288206
100
AcDbLine
 10
2386.919660121652
 20
2136.109031984135
 30
0.0
 11
2387.077771693918
 21
2136.105491945073
 31
0.0
  0
LINE
  5
101
330
2
100
AcDbEntity
  8
0
 62
     7
 48
0.003760832338762
100
AcDbLine
 10
2386.769345790598
 20
2136.115013429447
 30
0.0
 11
2386.919660121652
 21
2136.109031984135
 31
0.0
  0
LINE
  5
102
330
2
100
AcDbEntity
  8
0
 62
     7
 48
0.0035720121237407
100
AcDbLine
 10
2386.626706630441
 20
2136.123314210697
 30
0.0
 11
2386.769345790598
 21
2136.115013429447
 31
0.0
  0
LINE
  5
103
330
2
100
AcDbEntity
  8
0
 62
     7
 48
0.0033868359531155
100
AcDbLine
 10
2386.49163582966
 20
2136.133751222416
 30
0.0
 11
2386.626706630441
 21
2136.123314210697
 31
0.0
  0
LINE
  5
104
330
2
100
AcDbEntity
  8
0
 62
     7
 48
0.0085138921087979
100
AcDbLine
 10
2389.167310268137
 20
2136.20742065601
 30
0.0
 11
2389.506040126535
 21
2136.242637941167
 31
0.0
  0
LINE
  5
105
330
2
100
AcDbEntity
  8
0
 62
     7
 48
0.0003625728779018
100
AcDbLine
 10
2389.152875453683
 20
2136.206016847416
 30
0.0
 11
2389.167310268137
 21
2136.20742065601
 31
0.0
  0
LINE
  5
106
330
2
100
AcDbEntity
  8
0
 62
     7
 48
0.008476087850049
100
AcDbLine
 10
2388.81521371052
 20
2136.175438234135
 30
0.0
 11
2389.152875453683
 21
2136.206016847416
 31
0.0
  0
LINE
  5
107
330
2
100
AcDbEntity
  8
0
 62
     7
 48
0.0019283851215546
100
AcDbLine
 10
2388.738339931223
 20
2136.169090577885
 30
0.0
 11
2388.81521371052
 21
2136.175438234135
 31
0.0
  0
LINE
  5
108
330
2
100
AcDbEntity
  8
0
 62
     7
 48
0.0062489300050351
100
AcDbLine
 10
2388.489072353098
 20
2136.150535890385
 30
0.0
 11
2388.738339931223
 21
2136.169090577885
 31
0.0
  0
LINE
  5
109
330
2
100
AcDbEntity
  8
0
 62
     7
 48
0.0040280258186662
100
AcDbLine
 10
2388.328305751535
 20
2136.139854738041
 30
0.0
 11
2388.489072353098
 21
2136.150535890385
 31
0.0
  0
LINE
  5
10A
330
2
100
AcDbEntity
  8
0
 62
     7
 48
0.0037955042566238
100
AcDbLine
 10
2388.176740199777
 20
2136.131065675541
 30
0.0
 11
2388.328305751535
 21
2136.139854738041
 31
0.0
  0
LINE
  5
10B
330
2
100
AcDbEntity
  8
0
 62
     7
 48
0.0059321513208903
100
AcDbLine
 10
2387.939740688059
 20
2136.119407960698
 30
0.0
 11
2388.176740199777
 21
2136.131065675541
 31
0.0
  0
LINE
  5
10C
330
2
100
AcDbEntity
  8
0
 62
     7
 48
0.0015290049479669
100
AcDbLine
 10
2387.878629237863
 20
2136.116966554447
 30
0.0
 11
2387.939740688059
 21
2136.119407960698
 31
0.0
  0
LINE
  5
10D
330
2
100
AcDbEntity
  8
0
 62
     7
 48
0.0070737170961656
100
AcDbLine
 10
2387.595822841379
 20
2136.107994386479
 30
0.0
 11
2387.878629237863
 21
2136.116966554447
 31
0.0
  0
LINE
  5
10E
330
2
100
AcDbEntity
  8
0
 62
     7
 48
0.0005327087807594
100
AcDbLine
 10
2387.574521571848
 20
2136.107445070073
 30
0.0
 11
2387.595822841379
 21
2136.107994386479
 31
0.0
  0
LINE
  5
10F
330
2
100
AcDbEntity
  8
0
 62
     7
 48
0.0061517511874325
100
AcDbLine
 10
2387.328473598215
 20
2136.104149171635
 30
0.0
 11
2387.574521571848
 21
2136.107445070073
 31
0.0
  0
LINE
  5
110
330
2
100
AcDbEntity
  8
0
 62
     7
 48
0.0023353656418473
100
AcDbLine
 10
2387.235059291574
 20
2136.10390503101
 30
0.0
 11
2387.328473598215
 21
2136.104149171635
 31
0.0
  0
LINE
  5
111
330
2
100
AcDbEntity
  8
0
 62
     7
 48
0.0039338862794296
100
AcDbLine
 10
2387.077710658762
 20
2136.10536987476
 30
0.0
 11
2387.235059291574
 21
2136.10390503101
 31
0.0
  0
LINE
  5
112
330
2
100
AcDbEntity
  8
0
 62
     7
 48
0.0038686993570022
100
AcDbLine
 10
2386.923001796457
 20
2136.108848878666
 30
0.0
 11
2387.077710658762
 21
2136.10536987476
 31
0.0
  0
LINE
  5
113
330
2
100
AcDbEntity
  8
0
 62
     7
 48
0.0019807451434914
100
AcDbLine
 10
2386.843823940012
 20
2136.11171753101
 30
0.0
 11
2386.923001796457
 21
2136.108848878666
 31
0.0
  0
LINE
  5
114
330
2
100
AcDbEntity
  8
0
 62
     7
 48
0.005126965897408
100
AcDbLine
 10
2386.639020473215
 20
2136.122337648198
 30
0.0
 11
2386.843823940012
 21
2136.11171753101
 31
0.0
  0
LINE
  5
115
330
2
100
AcDbEntity
  8
0
 62
     7
 48
0.000311250311306
100
AcDbLine
 10
2386.626599818918
 20
2136.123192140385
 30
0.0
 11
2386.639020473215
 21
2136.122337648198
 31
0.0
  0
LINE
  5
116
330
2
100
AcDbEntity
  8
0
 62
     7
 48
0.0049986193588251
100
AcDbLine
 10
2386.42735055134
 20
2136.139854738041
 30
0.0
 11
2386.626599818918
 21
2136.123192140385
 31
0.0
  0
LINE
  5
117
330
2
100
AcDbEntity
  8
0
 62
     7
 48
0.0060104384764887
100
AcDbLine
 10
2389.505719691965
 20
2136.242637941167
 30
0.0
 11
2389.744534999582
 21
2136.270347902104
 31
0.0
  0
LINE
  5
118
330
2
100
AcDbEntity
  8
0
 62
     7
 48
0.0025001548287478
100
AcDbLine
 10
2389.506040126535
 20
2136.242637941167
 30
0.0
 11
2389.605420619699
 21
2136.25380737476
 31
0.0
  0
LINE
  5
119
330
2
100
AcDbEntity
  8
0
 62
     7
 48
0.0053075563218707
100
AcDbLine
 10
2394.576993495676
 20
2137.542137452885
 30
0.0
 11
2394.767774135324
 21
2137.635277101323
 31
0.0
  0
LINE
  5
11A
330
2
100
AcDbEntity
  8
0
 62
     7
 48
0.0003252093742383
100
AcDbLine
 10
2394.565259486887
 20
2137.53652221851
 30
0.0
 11
2394.576993495676
 21
2137.542137452885
 31
0.0
  0
LINE
  5
11B
330
2
100
AcDbEntity
  8
0
 62
     7
 48
0.0049598634582212
100
AcDbLine
 10
2394.385205775949
 20
2137.453209230229
 30
0.0
 11
2394.565259486887
 21
2137.53652221851
 31
0.0
  0
LINE
  5
11C
330
2
100
AcDbEntity
  8
0
 62
     7
 48
0.0017238442626261
100
AcDbLine
 10
2394.845746547434
 20
2137.674949952885
 30
0.0
 11
2394.907056361887
 21
2137.706505128667
 31
0.0
  0
LINE
  5
11D
330
2
100
AcDbEntity
  8
0
 62
     7
 48
0.0002498018030473
100
AcDbLine
 10
2394.836896449777
 20
2137.67031128101
 30
0.0
 11
2394.845746547434
 21
2137.674949952885
 31
0.0
  0
LINE
  5
11E
330
2
100
AcDbEntity
  8
0
 62
     7
 48
0.0019322842455863
100
AcDbLine
 10
2394.768094569895
 20
2137.635093995854
 30
0.0
 11
2394.836896449777
 21
2137.67031128101
 31
0.0
  0
LINE
  5
11F
330
2
100
AcDbEntity
  8
0
 62
     7
 48
0.00207312045434
100
AcDbLine
 10
2394.694028407785
 20
2137.597801515385
 30
0.0
 11
2394.768094569895
 21
2137.635093995854
 31
0.0
  0
LINE
  5
120
330
2
100
AcDbEntity
  8
0
 62
     7
 48
0.0002340633088042
100
AcDbLine
 10
2394.685636073801
 20
2137.59365112476
 30
0.0
 11
2394.694028407785
 21
2137.597801515385
 31
0.0
  0
LINE
  5
121
330
2
100
AcDbEntity
  8
0
 62
     7
 48
0.0018660984749621
100
AcDbLine
 10
2394.618543178293
 20
2137.56093628101
 30
0.0
 11
2394.685636073801
 21
2137.59365112476
 31
0.0
  0
LINE
  5
122
330
2
100
AcDbEntity
  8
0
 62
     7
 48
0.0021264290409709
100
AcDbLine
 10
2394.541715175364
 20
2137.524437257573
 30
0.0
 11
2394.618543178293
 21
2137.56093628101
 31
0.0
  0
LINE
  5
123
330
2
100
AcDbEntity
  8
0
 62
     7
 48
0.0006239800027647
100
AcDbLine
 10
2394.519071132394
 20
2137.513939210698
 30
0.0
 11
2394.541715175364
 21
2137.524437257573
 31
0.0
  0
LINE
  5
124
330
2
100
AcDbEntity
  8
0
 62
     7
 48
0.001514974349072
100
AcDbLine
 10
2394.464047939035
 20
2137.488548585698
 30
0.0
 11
2394.519071132394
 21
2137.513939210698
 31
0.0
  0
LINE
  5
125
330
2
100
AcDbEntity
  8
0
 62
     7
 48
0.0021508845365474
100
AcDbLine
 10
2394.385633022043
 20
2137.453148195072
 30
0.0
 11
2394.464047939035
 21
2137.488548585698
 31
0.0
  0
LINE
  5
126
330
2
100
AcDbEntity
  8
0
 62
     7
 48
0.0013715619222057
100
AcDbLine
 10
2394.335416347238
 20
2137.43105346851
 30
0.0
 11
2394.385633022043
 21
2137.453148195072
 31
0.0
  0
LINE
  5
127
330
2
100
AcDbEntity
  8
0
 62
     7
 48
0.0009679919650765
100
AcDbLine
 10
2394.29990914509
 20
2137.415611573979
 30
0.0
 11
2394.335416347238
 21
2137.43105346851
 31
0.0
  0
LINE
  5
128
330
2
100
AcDbEntity
  8
0
 62
     7
 48
0.0056344851373614
100
AcDbLine
 10
2393.969647914621
 20
2137.275535890385
 30
0.0
 11
2394.177747279856
 21
2137.362083741948
 31
0.0
  0
LINE
  5
129
330
2
100
AcDbEntity
  8
0
 62
     7
 48
0.0062186160176674
100
AcDbLine
 10
2393.738004237863
 20
2137.184898683354
 30
0.0
 11
2393.969647914621
 21
2137.275535890385
 31
0.0
  0
LINE
  5
12A
330
2
100
AcDbEntity
  8
0
 62
     7
 48
0.0061668914774806
100
AcDbLine
 10
2393.506421596262
 20
2137.099937745854
 30
0.0
 11
2393.738004237863
 21
2137.184898683354
 31
0.0
  0
LINE
  5
12B
330
2
100
AcDbEntity
  8
0
 62
     7
 48
0.0046354875175191
100
AcDbLine
 10
2393.331250697824
 20
2137.039146730229
 30
0.0
 11
2393.506421596262
 21
2137.099937745854
 31
0.0
  0
LINE
  5
12C
330
2
100
AcDbEntity
  8
0
 62
     7
 48
0.0046086062279199
100
AcDbLine
 10
2393.156262904855
 20
2136.981163331792
 30
0.0
 11
2393.331250697824
 21
2137.039146730229
 31
0.0
  0
LINE
  5
12D
330
2
100
AcDbEntity
  8
0
 62
     7
 48
0.0045756397341893
100
AcDbLine
 10
2392.981732875559
 20
2136.926048585698
 30
0.0
 11
2393.156262904855
 21
2136.981163331792
 31
0.0
  0
LINE
  5
12E
330
2
100
AcDbEntity
  8
0
 62
     7
 48
0.0051772409221802
100
AcDbLine
 10
2392.783414394113
 20
2136.866417238041
 30
0.0
 11
2392.981732875559
 21
2136.926048585698
 31
0.0
  0
LINE
  5
12F
330
2
100
AcDbEntity
  8
0
 62
     7
 48
0.0051256636860021
100
AcDbLine
 10
2392.58620980427
 20
2136.810325929448
 30
0.0
 11
2392.783414394113
 21
2136.866417238041
 31
0.0
  0
LINE
  5
130
330
2
100
AcDbEntity
  8
0
 62
     7
 48
0.0050776071009271
100
AcDbLine
 10
2392.390103847238
 20
2136.757469484135
 30
0.0
 11
2392.58620980427
 21
2136.810325929448
 31
0.0
  0
LINE
  5
131
330
2
100
AcDbEntity
  8
0
 62
     7
 48
0.0057496056680637
100
AcDbLine
 10
2392.167203456613
 20
2136.700828859135
 30
0.0
 11
2392.390103847238
 21
2136.757469484135
 31
0.0
  0
LINE
  5
132
330
2
100
AcDbEntity
  8
0
 62
     7
 48
0.0056825090795638
100
AcDbLine
 10
2391.946134120676
 20
2136.647972413823
 30
0.0
 11
2392.167203456613
 21
2136.700828859135
 31
0.0
  0
LINE
  5
133
330
2
100
AcDbEntity
  8
0
 62
     7
 48
0.0056168349203314
100
AcDbLine
 10
2391.726926357004
 20
2136.598717042729
 30
0.0
 11
2391.946134120676
 21
2136.647972413823
 31
0.0
  0
LINE
  5
134
330
2
100
AcDbEntity
  8
0
 62
     7
 48
0.0063121479356614
100
AcDbLine
 10
2391.479840785715
 20
2136.54677612476
 30
0.0
 11
2391.726926357004
 21
2136.598717042729
 31
0.0
  0
LINE
  5
135
330
2
100
AcDbEntity
  8
0
 62
     7
 48
0.005207040039129
100
AcDbLine
 10
2391.275479823801
 20
2136.506553956791
 30
0.0
 11
2391.479840785715
 21
2136.54677612476
 31
0.0
  0
LINE
  5
136
330
2
100
AcDbEntity
  8
0
 62
     7
 48
0.0010214349679368
100
AcDbLine
 10
2391.235364467355
 20
2136.498802491948
 30
0.0
 11
2391.275479823801
 21
2136.506553956791
 31
0.0
  0
LINE
  5
137
330
2
100
AcDbEntity
  8
0
 62
     7
 48
0.0061264306135529
100
AcDbLine
 10
2390.994290858957
 20
2136.454796144291
 30
0.0
 11
2391.235364467355
 21
2136.498802491948
 31
0.0
  0
LINE
  5
138
330
2
100
AcDbEntity
  8
0
 62
     7
 48
0.0048949610856484
100
AcDbLine
 10
2390.801328212473
 20
2136.421593019292
 30
0.0
 11
2390.994290858957
 21
2136.454796144291
 31
0.0
  0
LINE
  5
139
330
2
100
AcDbEntity
  8
0
 62
     7
 48
0.0048239423623429
100
AcDbLine
 10
2390.610868007394
 20
2136.390648195073
 30
0.0
 11
2390.801328212473
 21
2136.421593019292
 31
0.0
  0
LINE
  5
13A
330
2
100
AcDbEntity
  8
0
 62
     7
 48
0.0047470308583528
100
AcDbLine
 10
2390.423184901926
 20
2136.361839601323
 30
0.0
 11
2390.610868007394
 21
2136.390648195073
 31
0.0
  0
LINE
  5
13B
330
2
100
AcDbEntity
  8
0
 62
     7
 48
0.0022867498905798
100
AcDbLine
 10
2394.129636317941
 20
2137.343040773198
 30
0.0
 11
2394.213849574777
 21
2137.378746339604
 31
0.0
  0
LINE
  5
13C
330
2
100
AcDbEntity
  8
0
 62
     7
 48
0.0000642184769028
100
AcDbLine
 10
2394.127286464426
 20
2137.342003175541
 30
0.0
 11
2394.129636317941
 21
2137.343040773198
 31
0.0
  0
LINE
  5
13D
330
2
100
AcDbEntity
  8
0
 62
     7
 48
0.0021311160581152
100
AcDbLine
 10
2394.048825771066
 20
2137.308677980229
 30
0.0
 11
2394.127286464426
 21
2137.342003175541
 31
0.0
  0
LINE
  5
13E
330
2
100
AcDbEntity
  8
0
 62
     7
 48
0.0021409512537912
100
AcDbLine
 10
2393.969937831613
 20
2137.275352784916
 30
0.0
 11
2394.048825771066
 21
2137.308677980229
 31
0.0
  0
LINE
  5
13F
330
2
100
AcDbEntity
  8
0
 62
     7
 48
0.0013174301532902
100
AcDbLine
 10
2393.921216518136
 20
2137.25527221851
 30
0.0
 11
2393.969937831613
 21
2137.275352784916
 31
0.0
  0
LINE
  5
140
330
2
100
AcDbEntity
  8
0
 62
     7
 48
0.0010662662305888
100
AcDbLine
 10
2393.881726772043
 20
2137.23915893726
 30
0.0
 11
2393.921216518136
 21
2137.25527221851
 31
0.0
  0
LINE
  5
141
330
2
100
AcDbEntity
  8
0
 62
     7
 48
0.0024315109287761
100
AcDbLine
 10
2393.791257411691
 20
2137.203453370854
 30
0.0
 11
2393.881726772043
 21
2137.23915893726
 31
0.0
  0
LINE
  5
142
330
2
100
AcDbEntity
  8
0
 62
     7
 48
0.0021714900404275
100
AcDbLine
 10
2393.710004359934
 20
2137.17275268726
 30
0.0
 11
2393.791257411691
 21
2137.203453370854
 31
0.0
  0
LINE
  5
143
330
2
100
AcDbEntity
  8
0
 62
     7
 48
0.0003191422332854
100
AcDbLine
 10
2393.698041469308
 20
2137.168297120854
 30
0.0
 11
2393.710004359934
 21
2137.17275268726
 31
0.0
  0
LINE
  5
144
330
2
100
AcDbEntity
  8
0
 62
     7
 48
0.0025427653748481
100
AcDbLine
 10
2393.602399379465
 20
2137.13369018726
 30
0.0
 11
2393.698041469308
 21
2137.168297120854
 31
0.0
  0
LINE
  5
145
330
2
100
AcDbEntity
  8
0
 62
     7
 48
0.0025323391638593
100
AcDbLine
 10
2393.506894618723
 20
2137.099937745854
 30
0.0
 11
2393.602399379465
 21
2137.13369018726
 31
0.0
  0
LINE
  5
146
330
2
100
AcDbEntity
  8
0
 62
     7
 48
0.0002159603859668
100
AcDbLine
 10
2393.498746425363
 20
2137.09706909351
 30
0.0
 11
2393.506894618723
 21
2137.099937745854
 31
0.0
  0
LINE
  5
147
330
2
100
AcDbEntity
  8
0
 62
     7
 48
0.0025846794286419
100
AcDbLine
 10
2393.401151210519
 20
2137.062950441166
 30
0.0
 11
2393.498746425363
 21
2137.09706909351
 31
0.0
  0
LINE
  5
148
330
2
100
AcDbEntity
  8
0
 62
     7
 48
0.0025485691810483
100
AcDbLine
 10
2393.304746181223
 20
2137.029808351323
 30
0.0
 11
2393.401151210519
 21
2137.062950441166
 31
0.0
  0
LINE
  5
149
330
2
100
AcDbEntity
  8
0
 62
     7
 48
0.0002024263991016
100
AcDbLine
 10
2393.297086269113
 20
2137.027183839604
 30
0.0
 11
2393.304746181223
 21
2137.029808351323
 31
0.0
  0
LINE
  5
14A
330
2
100
AcDbEntity
  8
0
 62
     7
 48
0.0027535317763248
100
AcDbLine
 10
2393.192563564035
 20
2136.992454835698
 30
0.0
 11
2393.297086269113
 21
2137.027183839604
 31
0.0
  0
LINE
  5
14B
330
2
100
AcDbEntity
  8
0
 62
     7
 48
0.0019280192486935
100
AcDbLine
 10
2393.119168788645
 20
2136.968773195073
 30
0.0
 11
2393.192563564035
 21
2136.992454835698
 31
0.0
  0
LINE
  5
14C
330
2
100
AcDbEntity
  8
0
 62
     7
 48
0.0008313527733921
100
AcDbLine
 10
2393.087476283762
 20
2136.958702394291
 30
0.0
 11
2393.119168788645
 21
2136.968773195073
 31
0.0
  0
LINE
  5
14D
330
2
100
AcDbEntity
  8
0
 62
     7
 48
0.0027648357623412
100
AcDbLine
 10
2392.98187020466
 20
2136.925865480229
 30
0.0
 11
2393.087476283762
 21
2136.958702394291
 31
0.0
  0
LINE
  5
14E
330
2
100
AcDbEntity
  8
0
 62
     7
 48
0.0011633763499229
100
AcDbLine
 10
2392.937314540597
 20
2136.912437745854
 30
0.0
 11
2392.98187020466
 21
2136.925865480229
 31
0.0
  0
LINE
  5
14F
330
2
100
AcDbEntity
  8
0
 62
     7
 48
0.0027978166275107
100
AcDbLine
 10
2392.83001473591
 20
2136.880638429448
 30
0.0
 11
2392.937314540597
 21
2136.912437745854
 31
0.0
  0
LINE
  5
150
330
2
100
AcDbEntity
  8
0
 62
     7
 48
0.0020071480167868
100
AcDbLine
 10
2392.752881557199
 20
2136.858360597416
 30
0.0
 11
2392.83001473591
 21
2136.880638429448
 31
0.0
  0
LINE
  5
151
330
2
100
AcDbEntity
  8
0
 62
     7
 48
0.0018686580256667
100
AcDbLine
 10
2392.681073695871
 20
2136.837608644291
 30
0.0
 11
2392.752881557199
 21
2136.858360597416
 31
0.0
  0
LINE
  5
152
330
2
100
AcDbEntity
  8
0
 62
     7
 48
0.0030020460518953
100
AcDbLine
 10
2392.56553414509
 20
2136.804893800542
 30
0.0
 11
2392.681073695871
 21
2136.837608644291
 31
0.0
  0
LINE
  5
153
330
2
100
AcDbEntity
  8
0
 62
     7
 48
0.0007667158126736
100
AcDbLine
 10
2392.535993129464
 20
2136.796654054447
 30
0.0
 11
2392.56553414509
 21
2136.804893800542
 31
0.0
  0
LINE
  5
154
330
2
100
AcDbEntity
  8
0
 62
     7
 48
0.003767289646509
100
AcDbLine
 10
2392.390485316965
 20
2136.757469484135
 30
0.0
 11
2392.535993129464
 21
2136.796654054447
 31
0.0
  0
LINE
  5
155
330
2
100
AcDbEntity
  8
0
 62
     7
 48
0.0007535123141756
100
AcDbLine
 10
2392.361310512277
 20
2136.74990112476
 30
0.0
 11
2392.390485316965
 21
2136.757469484135
 31
0.0
  0
LINE
  5
156
330
2
100
AcDbEntity
  8
0
 62
     7
 48
0.0027008962885421
100
AcDbLine
 10
2392.256665736887
 20
2136.72304565601
 30
0.0
 11
2392.361310512277
 21
2136.74990112476
 31
0.0
  0
LINE
  5
157
330
2
100
AcDbEntity
  8
0
 62
     7
 48
0.0031627090020241
100
AcDbLine
 10
2392.133878261301
 20
2136.692589113041
 30
0.0
 11
2392.256665736887
 21
2136.72304565601
 31
0.0
  0
LINE
  5
158
330
2
100
AcDbEntity
  8
0
 62
     7
 48
0.0002783069377329
100
AcDbLine
 10
2392.123059779855
 20
2136.689964601323
 30
0.0
 11
2392.133878261301
 21
2136.692589113041
 31
0.0
  0
LINE
  5
159
330
2
100
AcDbEntity
  8
0
 62
     7
 48
0.0034097216300574
100
AcDbLine
 10
2391.990415126535
 20
2136.658226320073
 30
0.0
 11
2392.123059779855
 21
2136.689964601323
 31
0.0
  0
LINE
  5
15A
330
2
100
AcDbEntity
  8
0
 62
     7
 48
0.0025713405162551
100
AcDbLine
 10
2391.890210658762
 20
2136.635032960698
 30
0.0
 11
2391.990415126535
 21
2136.658226320073
 31
0.0
  0
LINE
  5
15B
330
2
100
AcDbEntity
  8
0
 62
     7
 48
0.0008106539552116
100
AcDbLine
 10
2391.858594447824
 20
2136.62783081226
 30
0.0
 11
2391.890210658762
 21
2136.635032960698
 31
0.0
  0
LINE
  5
15C
330
2
100
AcDbEntity
  8
0
 62
     7
 48
0.0033626442799238
100
AcDbLine
 10
2391.727277309152
 20
2136.598717042729
 30
0.0
 11
2391.858594447824
 21
2136.62783081226
 31
0.0
  0
LINE
  5
15D
330
2
100
AcDbEntity
  8
0
 62
     7
 48
0.0025625255500941
100
AcDbLine
 10
2391.627027065012
 20
2136.577354738042
 30
0.0
 11
2391.727277309152
 21
2136.598717042729
 31
0.0
  0
LINE
  5
15E
330
2
100
AcDbEntity
  8
0
 62
     7
 48
0.0026670654741905
100
AcDbLine
 10
2391.522580653879
 20
2136.555626222417
 30
0.0
 11
2391.627027065012
 21
2136.577354738042
 31
0.0
  0
LINE
  5
15F
330
2
100
AcDbEntity
  8
0
 62
     7
 48
0.0044990666340608
100
AcDbLine
 10
2391.346097499582
 20
2136.52040893726
 30
0.0
 11
2391.522580653879
 21
2136.555626222417
 31
0.0
  0
LINE
  5
160
330
2
100
AcDbEntity
  8
0
 62
     7
 48
0.000072948542685
100
AcDbLine
 10
2391.343244106027
 20
2136.519798585698
 30
0.0
 11
2391.346097499582
 21
2136.52040893726
 31
0.0
  0
LINE
  5
161
330
2
100
AcDbEntity
  8
0
 62
     7
 48
0.0044585871091593
100
AcDbLine
 10
2391.168088466379
 20
2136.48622924976
 30
0.0
 11
2391.343244106027
 21
2136.519798585698
 31
0.0
  0
LINE
  5
162
330
2
100
AcDbEntity
  8
0
 62
     7
 48
0.0028961183901707
100
AcDbLine
 10
2391.054151088449
 20
2136.465294191166
 30
0.0
 11
2391.168088466379
 21
2136.48622924976
 31
0.0
  0
LINE
  5
163
330
2
100
AcDbEntity
  8
0
 62
     7
 48
0.0015197671560654
100
AcDbLine
 10
2390.994306117746
 20
2136.454613038823
 30
0.0
 11
2391.054151088449
 21
2136.465294191166
 31
0.0
  0
LINE
  5
164
330
2
100
AcDbEntity
  8
0
 62
     7
 48
0.0063853635032691
100
AcDbLine
 10
2390.742490321847
 20
2136.411888429448
 30
0.0
 11
2390.994306117746
 21
2136.454613038823
 31
0.0
  0
LINE
  5
165
330
2
100
AcDbEntity
  8
0
 62
     7
 48
0.0001460007791182
100
AcDbLine
 10
2390.736722499582
 20
2136.410972902104
 30
0.0
 11
2390.742490321847
 21
2136.411888429448
 31
0.0
  0
LINE
  5
166
330
2
100
AcDbEntity
  8
0
 62
     7
 48
0.0063730057512975
100
AcDbLine
 10
2390.484937221262
 20
2136.371116945073
 30
0.0
 11
2390.736722499582
 21
2136.410972902104
 31
0.0
  0
LINE
  5
167
330
2
100
AcDbEntity
  8
0
 62
     7
 48
0.0020194911127903
100
AcDbLine
 10
2390.40505746052
 20
2136.359093019291
 30
0.0
 11
2390.484937221262
 21
2136.371116945073
 31
0.0
  0
LINE
  5
168
330
2
100
AcDbEntity
  8
0
 62
     7
 48
0.0056647419521974
100
AcDbLine
 10
2394.177747279856
 20
2137.362083741948
 30
0.0
 11
2394.385205775949
 21
2137.453209230229
 31
0.0
  0
LINE
  5
169
330
2
100
AcDbEntity
  8
0
 62
     7
 48
0.0023405788744315
100
AcDbLine
 10
2394.213849574777
 20
2137.378746339604
 30
0.0
 11
2394.29990914509
 21
2137.415611573979
 31
0.0
  0
LINE
  5
16A
330
2
100
AcDbEntity
  8
0
 62
     7
 48
0.0049434784174421
100
AcDbLine
 10
2394.767774135324
 20
2137.635277101323
 30
0.0
 11
2394.943799525949
 21
2137.725364991948
 31
0.0
  0
LINE
  5
16B
330
2
100
AcDbEntity
  8
0
 62
     7
 48
0.0020037929001385
100
AcDbLine
 10
2394.907056361887
 20
2137.706505128667
 30
0.0
 11
2394.97813180134
 21
2137.74355346851
 31
0.0
  0
LWPOLYLINE
  5
16C
330
2
100
AcDbEntity
  8
0
 62
     7
100
AcDbPolyline
 90
        5
 70
     0
 43
0.0
 10
2381.813352138254
 20
2137.781090089604
 10
2382.661801845285
 20
2137.643028566166
 10
2383.693158656809
 20
2137.343956300541
 10
2384.689298183176
 20
2136.910118409916
 10
2385.614774257394
 20
2136.35829956226
  0
ELLIPSE
  5
16D
330
2
100
AcDbEntity
  8
0
 62
     7
100
AcDbEllipse
 10
2462.012586147043
 20
2157.509483644291
 30
0.0
 11
97.32040405273442
 21
-0.8739624023437501
 31
0.0
210
0.0
220
0.0
230
0.9999999999999998
 40
0.0292422014028464
 41
3.709264993667602
 42
4.14514684677124
  0
INSERT
  5
16E
330
2
100
AcDbEntity
  8
CAR_DATUMS
100
AcDbBlockReference
  2
A$C239052F4
 10
2531.070607065069
 20
2095.215960103575
 30
0.0
  0
LWPOLYLINE
  5
16F
330
2
100
AcDbEntity
  8
0
 62
     7
100
AcDbPolyline
 90
       17
 70
     0
 43
0.0
 10
2653.00214150593
 20
2203.214683839604
 10
2650.488370448801
 20
2203.635216066166
 10
2647.968831569406
 20
2204.019676515385
 10
2642.906003505442
 20
2204.709678956791
 10
2637.832044154856
 20
2205.312095948979
 10
2632.755506068918
 20
2205.823204347416
 10
2627.690671474192
 20
2206.268516847416
 10
2617.55364754841
 20
2207.10829956226
 10
2607.393132716867
 20
2207.876732179447
 10
2597.209462672922
 20
2208.565452882573
 10
2587.016530544016
 20
2209.167259523197
 10
2576.815206081125
 20
2209.676719972417
 10
2566.619634181711
 20
2210.089073488041
 10
2556.431096584055
 20
2210.401146241948
 10
2546.211957484934
 20
2210.611473390385
 10
2535.966474086496
 20
2210.717430421635
 10
2530.839673549387
 20
2210.730675050541
  0
LINE
  5
170
330
2
100
AcDbEntity
  8
0
 62
     7
 48
0.2281190872192383
100
AcDbLine
 10
2666.641294032785
 20
2137.774925538823
 30
0.0
 11
2530.608740033704
 21
2137.774925538823
 31
0.0
  0
LWPOLYLINE
  5
171
330
2
100
AcDbEntity
  8
0
 62
     7
100
AcDbPolyline
 90
        7
 70
     0
 43
0.0
 10
2530.839673549387
 20
2154.213157960698
 10
2560.341199428293
 20
2154.28212768726
 10
2588.909802943918
 20
2154.486778566166
 10
2611.971189052316
 20
2154.765343019291
 10
2633.156049281808
 20
2155.132286378667
 10
2649.02532723591
 20
2155.499351808354
 10
2651.979939967844
 20
2155.578941652104
  0
LWPOLYLINE
  5
172
330
2
100
AcDbEntity
  8
0
 62
     7
100
AcDbPolyline
 90
        6
 70
     0
 43
0.0
 10
2651.937802821848
 20
2155.578880616948
 10
2634.021237880441
 20
2155.150841066166
 10
2612.169713527414
 20
2154.768883058354
 10
2586.39887765095
 20
2154.463463136479
 10
2559.026509792063
 20
2154.276573488041
 10
2530.839673549387
 20
2154.213646241948
  0
LWPOLYLINE
  5
173
330
2
100
AcDbEntity
  8
0
 62
     7
100
AcDbPolyline
 90
        5
 70
     0
 43
0.0
 10
2679.86599496052
 20
2137.781090089604
 10
2679.017545253488
 20
2137.643028566166
 10
2677.986188441965
 20
2137.343956300541
 10
2676.990048915598
 20
2136.910118409916
 10
2676.064572841379
 20
2136.35829956226
  0
LINE
  5
174
330
2
100
AcDbEntity
  8
0
 62
     7
 48
0.0059321513208903
100
AcDbLine
 10
2673.739606410715
 20
2136.119407960698
 30
0.0
 11
2673.502606898996
 21
2136.131065675541
 31
0.0
  0
LINE
  5
175
330
2
100
AcDbEntity
  8
0
 62
     7
 48
0.0050114400434052
100
AcDbLine
 10
2673.703092128489
 20
2136.121177980229
 30
0.0
 11
2673.502881557199
 21
2136.131126710698
 31
0.0
  0
LINE
  5
176
330
2
100
AcDbEntity
  8
0
 62
     7
 48
0.0037955042566238
100
AcDbLine
 10
2673.502606898996
 20
2136.131065675541
 30
0.0
 11
2673.351041347238
 21
2136.139854738041
 31
0.0
  0
LINE
  5
177
330
2
100
AcDbEntity
  8
0
 62
     7
 48
0.0040280258186662
100
AcDbLine
 10
2673.351041347238
 20
2136.139854738041
 30
0.0
 11
2673.190274745676
 21
2136.150535890385
 31
0.0
  0
LINE
  5
178
330
2
100
AcDbEntity
  8
0
 62
     7
 48
0.0062489300050351
100
AcDbLine
 10
2673.190274745676
 20
2136.150535890385
 30
0.0
 11
2672.941007167551
 21
2136.169090577885
 31
0.0
  0
LINE
  5
179
330
2
100
AcDbEntity
  8
0
 62
     7
 48
0.0019283851215546
100
AcDbLine
 10
2672.941007167551
 20
2136.169090577885
 30
0.0
 11
2672.864133388254
 21
2136.175438234135
 31
0.0
  0
LINE
  5
17A
330
2
100
AcDbEntity
  8
0
 62
     7
 48
0.008476087850049
100
AcDbLine
 10
2672.864133388254
 20
2136.175438234135
 30
0.0
 11
2672.52647164509
 21
2136.206016847416
 31
0.0
  0
LINE
  5
17B
330
2
100
AcDbEntity
  8
0
 62
     7
 48
0.0003625728779018
100
AcDbLine
 10
2672.52647164509
 20
2136.206016847416
 30
0.0
 11
2672.512036830637
 21
2136.20742065601
 31
0.0
  0
LINE
  5
17C
330
2
100
AcDbEntity
  8
0
 62
     7
 48
0.0085138921087979
100
AcDbLine
 10
2672.512036830637
 20
2136.20742065601
 30
0.0
 11
2672.173306972238
 21
2136.242637941167
 31
0.0
  0
LINE
  5
17D
330
2
100
AcDbEntity
  8
0
 62
     7
 48
0.0025001548287478
100
AcDbLine
 10
2672.173306972238
 20
2136.242637941167
 30
0.0
 11
2672.073926479074
 21
2136.25380737476
 31
0.0
  0
LINE
  5
17E
330
2
100
AcDbEntity
  8
0
 62
     7
 48
0.0065737039008479
100
AcDbLine
 10
2672.073926479074
 20
2136.25380737476
 30
0.0
 11
2671.812863857004
 21
2136.285240480229
 31
0.0
  0
LINE
  5
17F
330
2
100
AcDbEntity
  8
0
 62
     7
 48
0.003984569184425
100
AcDbLine
 10
2671.812863857004
 20
2136.285240480229
 30
0.0
 11
2671.654798061105
 21
2136.305687257573
 31
0.0
  0
LINE
  5
180
330
2
100
AcDbEntity
  8
0
 62
     7
 48
0.005174379788801
100
AcDbLine
 10
2673.502881557199
 20
2136.131126710698
 30
0.0
 11
2673.296277553293
 21
2136.143516847416
 31
0.0
  0
LINE
  5
181
330
2
100
AcDbEntity
  8
0
 62
     7
 48
0.0053281046068698
100
AcDbLine
 10
2673.296277553293
 20
2136.143516847416
 30
0.0
 11
2673.083661586496
 21
2136.158226320073
 31
0.0
  0
LINE
  5
182
330
2
100
AcDbEntity
  8
0
 62
     7
 48
0.005497061353562
100
AcDbLine
 10
2673.083661586496
 20
2136.158226320073
 30
0.0
 11
2672.864453822824
 21
2136.175438234135
 31
0.0
  0
LINE
  5
183
330
2
100
AcDbEntity
  8
0
 62
     7
 48
0.0056342960453103
100
AcDbLine
 10
2672.864453822824
 20
2136.175438234135
 30
0.0
 11
2672.639951259348
 21
2136.19521362476
 31
0.0
  0
LINE
  5
184
330
2
100
AcDbEntity
  8
0
 62
     7
 48
0.0057824990576028
100
AcDbLine
 10
2672.639951259348
 20
2136.19521362476
 30
0.0
 11
2672.409726649973
 21
2136.217491456791
 31
0.0
  0
LINE
  5
185
330
2
100
AcDbEntity
  8
0
 62
     7
 48
0.0059358654749679
100
AcDbLine
 10
2672.409726649973
 20
2136.217491456791
 30
0.0
 11
2672.173627406809
 21
2136.242637941167
 31
0.0
  0
LINE
  5
186
330
2
100
AcDbEntity
  8
0
 62
     7
 48
0.0060104384764887
100
AcDbLine
 10
2672.173627406809
 20
2136.242637941167
 30
0.0
 11
2671.934812099191
 21
2136.270347902104
 31
0.0
  0
LINE
  5
187
330
2
100
AcDbEntity
  8
0
 62
     7
 48
0.0061451478155884
100
AcDbLine
 10
2671.934812099191
 20
2136.270347902104
 30
0.0
 11
2671.690915614817
 21
2136.300926515385
 31
0.0
  0
LINE
  5
188
330
2
100
AcDbEntity
  8
0
 62
     7
 48
0.0000330098078198
100
AcDbLine
 10
2676.064572841379
 20
2136.35829956226
 30
0.0
 11
2676.063474208566
 21
2136.357567140385
 31
0.0
  0
LINE
  5
189
330
2
100
AcDbEntity
  8
0
 62
     7
 48
0.0006888092704817
100
AcDbLine
 10
2676.063474208566
 20
2136.357567140385
 30
0.0
 11
2676.040372401926
 21
2136.342552491948
 31
0.0
  0
LINE
  5
18A
330
2
100
AcDbEntity
  8
0
 62
     7
 48
0.0017539506783944
100
AcDbLine
 10
2676.040372401926
 20
2136.342552491948
 30
0.0
 11
2675.979001552317
 21
2136.308555909916
 31
0.0
  0
ARC
  5
18B
330
2
100
AcDbEntity
  8
0
 62
     7
100
AcDbCircle
 10
2675.513822108957
 20
2137.258995363041
 30
0.0
 40
1.058168411254882
100
AcDbArc
 50
289.6581959377783
 51
296.0508972709476
  0
LINE
  5
18C
330
2
100
AcDbEntity
  8
0
 62
     7
 48
0.0001848581985444
100
AcDbLine
 10
2675.869809657785
 20
2136.262474366948
 30
0.0
 11
2675.862851649973
 21
2136.259971925541
 31
0.0
  0
ARC
  5
18D
330
2
100
AcDbEntity
  8
0
 62
     7
100
AcDbCircle
 10
2675.342801601145
 20
2137.733177491948
 30
0.0
 40
1.562339663505554
100
AcDbArc
 50
284.8565374750307
 51
289.4427091818996
  0
LINE
  5
18E
330
2
100
AcDbEntity
  8
0
 62
     7
 48
0.0008730441206477
100
AcDbLine
 10
2675.743390590402
 20
2136.22304565601
 30
0.0
 11
2675.70957711384
 21
2136.214317628666
 31
0.0
  0
LINE
  5
18F
330
2
100
AcDbEntity
  8
0
 62
     7
 48
0.0028636060370892
100
AcDbLine
 10
2675.70957711384
 20
2136.214317628666
 30
0.0
 11
2675.597745448801
 21
2136.189537355229
 31
0.0
  0
LINE
  5
190
330
2
100
AcDbEntity
  8
0
 62
     7
 48
0.0020437023341474
100
AcDbLine
 10
2675.597745448801
 20
2136.189537355229
 30
0.0
 11
2675.517331630441
 21
2136.174827882573
 31
0.0
  0
LINE
  5
191
330
2
100
AcDbEntity
  8
0
 62
     7
 48
0.0021083159183205
100
AcDbLine
 10
2675.517331630441
 20
2136.174827882573
 30
0.0
 11
2675.433988124582
 21
2136.161949464604
 31
0.0
  0
LINE
  5
192
330
2
100
AcDbEntity
  8
0
 62
     7
 48
0.0035293607344824
100
AcDbLine
 10
2675.433988124582
 20
2136.161949464604
 30
0.0
 11
2675.293927699778
 21
2136.144249269292
 31
0.0
  0
LINE
  5
193
330
2
100
AcDbEntity
  8
0
 62
     7
 48
0.0010540201141884
100
AcDbLine
 10
2675.293927699778
 20
2136.144249269292
 30
0.0
 11
2675.251996547434
 21
2136.139854738041
 31
0.0
  0
LINE
  5
194
330
2
100
AcDbEntity
  8
0
 62
     7
 48
0.0049986193588251
100
AcDbLine
 10
2675.251996547434
 20
2136.139854738041
 30
0.0
 11
2675.052747279856
 21
2136.123192140385
 31
0.0
  0
LINE
  5
195
330
2
100
AcDbEntity
  8
0
 62
     7
 48
0.000311250311306
100
AcDbLine
 10
2675.052747279856
 20
2136.123192140385
 30
0.0
 11
2675.040326625559
 21
2136.122337648198
 31
0.0
  0
LINE
  5
196
330
2
100
AcDbEntity
  8
0
 62
     7
 48
0.005126965897408
100
AcDbLine
 10
2675.040326625559
 20
2136.122337648198
 30
0.0
 11
2674.835523158762
 21
2136.11171753101
 31
0.0
  0
LINE
  5
197
330
2
100
AcDbEntity
  8
0
 62
     7
 48
0.0019807451434914
100
AcDbLine
 10
2674.835523158762
 20
2136.11171753101
 30
0.0
 11
2674.756345302316
 21
2136.108848878666
 31
0.0
  0
LINE
  5
198
330
2
100
AcDbEntity
  8
0
 62
     7
 48
0.0038686993570022
100
AcDbLine
 10
2674.756345302316
 20
2136.108848878666
 30
0.0
 11
2674.601636440012
 21
2136.10536987476
 31
0.0
  0
LINE
  5
199
330
2
100
AcDbEntity
  8
0
 62
     7
 48
0.0039338862794296
100
AcDbLine
 10
2674.601636440012
 20
2136.10536987476
 30
0.0
 11
2674.444287807199
 21
2136.10390503101
 31
0.0
  0
LINE
  5
19A
330
2
100
AcDbEntity
  8
0
 62
     7
 48
0.0023353656418473
100
AcDbLine
 10
2674.444287807199
 20
2136.10390503101
 30
0.0
 11
2674.350873500559
 21
2136.104149171635
 31
0.0
  0
LINE
  5
19B
330
2
100
AcDbEntity
  8
0
 62
     7
 48
0.0061517511874325
100
AcDbLine
 10
2674.350873500559
 20
2136.104149171635
 30
0.0
 11
2674.104825526926
 21
2136.107445070073
 31
0.0
  0
LINE
  5
19C
330
2
100
AcDbEntity
  8
0
 62
     7
 48
0.0005327087807594
100
AcDbLine
 10
2674.104825526926
 20
2136.107445070073
 30
0.0
 11
2674.083524257395
 21
2136.107994386479
 31
0.0
  0
LINE
  5
19D
330
2
100
AcDbEntity
  8
0
 62
     7
 48
0.0070737170961656
100
AcDbLine
 10
2674.083524257395
 20
2136.107994386479
 30
0.0
 11
2673.80071786091
 21
2136.116966554447
 31
0.0
  0
LINE
  5
19E
330
2
100
AcDbEntity
  8
0
 62
     7
 48
0.0015290049479669
100
AcDbLine
 10
2673.80071786091
 20
2136.116966554447
 30
0.0
 11
2673.739606410715
 21
2136.119407960698
 31
0.0
  0
LINE
  5
19F
330
2
100
AcDbEntity
  8
0
 62
     7
 48
0.0011256209836209
100
AcDbLine
 10
2676.063733607981
 20
2136.358055421635
 30
0.0
 11
2676.025784999582
 21
2136.333824464604
 31
0.0
  0
LINE
  5
1A0
330
2
100
AcDbEntity
  8
0
 62
     7
 48
0.0013248663279049
100
AcDbLine
 10
2676.025784999582
 20
2136.333824464604
 30
0.0
 11
2675.979169398996
 21
2136.308616945073
 31
0.0
  0
LINE
  5
1A1
330
2
100
AcDbEntity
  8
0
 62
     7
 48
0.0019380139872758
100
AcDbLine
 10
2675.979169398996
 20
2136.308616945073
 30
0.0
 11
2675.90830758259
 21
2136.277183839604
 31
0.0
  0
LINE
  5
1A2
330
2
100
AcDbEntity
  8
0
 62
     7
 48
0.0020851497109627
100
AcDbLine
 10
2675.90830758259
 20
2136.277183839604
 30
0.0
 11
2675.829923183176
 21
2136.248680421635
 31
0.0
  0
LINE
  5
1A3
330
2
100
AcDbEntity
  8
0
 62
     7
 48
0.002252886215788
100
AcDbLine
 10
2675.829923183176
 20
2136.248680421635
 30
0.0
 11
2675.743512660715
 21
2136.223106691166
 31
0.0
  0
LINE
  5
1A4
330
2
100
AcDbEntity
  8
0
 62
     7
 48
0.0024481533517153
100
AcDbLine
 10
2675.743512660715
 20
2136.223106691166
 30
0.0
 11
2675.648328334543
 21
2136.20009643726
 31
0.0
  0
LINE
  5
1A5
330
2
100
AcDbEntity
  8
0
 62
     7
 48
0.0026331845026093
100
AcDbLine
 10
2675.648328334543
 20
2136.20009643726
 30
0.0
 11
2675.544980556223
 21
2136.179771730229
 31
0.0
  0
LINE
  5
1A6
330
2
100
AcDbEntity
  8
0
 62
     7
 48
0.0028104902421883
100
AcDbLine
 10
2675.544980556223
 20
2136.179771730229
 30
0.0
 11
2675.433972865793
 21
2136.16201049976
 31
0.0
  0
LINE
  5
1A7
330
2
100
AcDbEntity
  8
0
 62
     7
 48
0.0030064438449716
100
AcDbLine
 10
2675.433972865793
 20
2136.16201049976
 30
0.0
 11
2675.314694911691
 21
2136.146690675541
 31
0.0
  0
LINE
  5
1A8
330
2
100
AcDbEntity
  8
0
 62
     7
 48
0.0031910299012998
100
AcDbLine
 10
2675.314694911691
 20
2136.146690675541
 30
0.0
 11
2675.187711269114
 21
2136.133751222416
 31
0.0
  0
LINE
  5
1A9
330
2
100
AcDbEntity
  8
0
 62
     7
 48
0.0033868359531155
100
AcDbLine
 10
2675.187711269114
 20
2136.133751222416
 30
0.0
 11
2675.052640468332
 21
2136.123314210697
 31
0.0
  0
LINE
  5
1AA
330
2
100
AcDbEntity
  8
0
 62
     7
 48
0.0035720121237407
100
AcDbLine
 10
2675.052640468332
 20
2136.123314210697
 30
0.0
 11
2674.910001308176
 21
2136.115013429447
 31
0.0
  0
LINE
  5
1AB
330
2
100
AcDbEntity
  8
0
 62
     7
 48
0.003760832338762
100
AcDbLine
 10
2674.910001308176
 20
2136.115013429447
 30
0.0
 11
2674.759686977121
 21
2136.109031984135
 31
0.0
  0
LINE
  5
1AC
330
2
100
AcDbEntity
  8
0
 62
     7
 48
0.0039537799288206
100
AcDbLine
 10
2674.759686977121
 20
2136.109031984135
 30
0.0
 11
2674.601575404855
 21
2136.105491945073
 31
0.0
  0
LINE
  5
1AD
330
2
100
AcDbEntity
  8
0
 62
     7
 48
0.0022771773580667
100
AcDbLine
 10
2674.601575404855
 20
2136.105491945073
 30
0.0
 11
2674.510495692941
 21
2136.104332277104
 31
0.0
  0
LINE
  5
1AE
330
2
100
AcDbEntity
  8
0
 62
     7
 48
0.0023410921436792
100
AcDbLine
 10
2674.510495692941
 20
2136.104332277104
 30
0.0
 11
2674.416852504465
 21
2136.104027101322
 31
0.0
  0
LINE
  5
1AF
330
2
100
AcDbEntity
  8
0
 62
     7
 48
0.0040852322537631
100
AcDbLine
 10
2674.416852504465
 20
2136.104027101322
 30
0.0
 11
2674.253446132395
 21
2136.105003663823
 31
0.0
  0
LINE
  5
1B0
330
2
100
AcDbEntity
  8
0
 62
     7
 48
0.0042464434815055
100
AcDbLine
 10
2674.253446132395
 20
2136.105003663823
 30
0.0
 11
2674.083615810129
 21
2136.108055421635
 31
0.0
  0
LINE
  5
1B1
330
2
100
AcDbEntity
  8
0
 62
     7
 48
0.0046684070162203
100
AcDbLine
 10
2674.083615810129
 20
2136.108055421635
 30
0.0
 11
2673.896955043527
 21
2136.113365480229
 31
0.0
  0
LINE
  5
1B2
330
2
100
AcDbEntity
  8
0
 62
     7
 48
0.0048505067379407
100
AcDbLine
 10
2673.896955043527
 20
2136.113365480229
 30
0.0
 11
2673.703092128489
 21
2136.121177980229
 31
0.0
  0
LINE
  5
1B3
330
2
100
AcDbEntity
  8
0
 62
     7
 48
0.00207312045434
100
AcDbLine
 10
2666.985318690988
 20
2137.597801515385
 30
0.0
 11
2666.911252528879
 21
2137.635093995854
 31
0.0
  0
LINE
  5
1B4
330
2
100
AcDbEntity
  8
0
 62
     7
 48
0.0053075563218707
100
AcDbLine
 10
2667.102353603098
 20
2137.542137452885
 30
0.0
 11
2666.911572963449
 21
2137.635277101323
 31
0.0
  0
LINE
  5
1B5
330
2
100
AcDbEntity
  8
0
 62
     7
 48
0.0019322842455863
100
AcDbLine
 10
2666.911252528879
 20
2137.635093995854
 30
0.0
 11
2666.842450648996
 21
2137.67031128101
 31
0.0
  0
LINE
  5
1B6
330
2
100
AcDbEntity
  8
0
 62
     7
 48
0.0002498018030473
100
AcDbLine
 10
2666.842450648996
 20
2137.67031128101
 30
0.0
 11
2666.83360055134
 21
2137.674949952885
 31
0.0
  0
LINE
  5
1B7
330
2
100
AcDbEntity
  8
0
 62
     7
 48
0.0017238442626261
100
AcDbLine
 10
2666.83360055134
 20
2137.674949952885
 30
0.0
 11
2666.772290736886
 21
2137.706505128667
 31
0.0
  0
LINE
  5
1B8
330
2
100
AcDbEntity
  8
0
 62
     7
 48
0.0020037929001385
100
AcDbLine
 10
2666.772290736886
 20
2137.706505128667
 30
0.0
 11
2666.701215297434
 21
2137.74355346851
 31
0.0
  0
LINE
  5
1B9
330
2
100
AcDbEntity
  8
0
 62
     7
 48
0.0010221441994556
100
AcDbLine
 10
2666.701215297434
 20
2137.74355346851
 30
0.0
 11
2666.665067226145
 21
2137.762657472416
 31
0.0
  0
LINE
  5
1BA
330
2
100
AcDbEntity
  8
0
 62
     7
 48
0.0006471080458428
100
AcDbLine
 10
2666.665067226145
 20
2137.762657472416
 30
0.0
 11
2666.642209560129
 21
2137.77480346851
 31
0.0
  0
LINE
  5
1BB
330
2
100
AcDbEntity
  8
0
 62
     7
 48
0.0027462005615234
100
AcDbLine
 10
2666.27288582966
 20
2137.774925538823
 30
0.0
 11
2666.1630378072
 21
2137.774925538823
 31
0.0
  0
LINE
  5
1BC
330
2
100
AcDbEntity
  8
0
 62
     7
 48
0.0026454925537109
100
AcDbLine
 10
2666.378705531808
 20
2137.774925538823
 30
0.0
 11
2666.27288582966
 21
2137.774925538823
 31
0.0
  0
LINE
  5
1BD
330
2
100
AcDbEntity
  8
0
 62
     7
 48
0.0025421142578125
100
AcDbLine
 10
2666.480390102121
 20
2137.774925538823
 30
0.0
 11
2666.378705531808
 21
2137.774925538823
 31
0.0
  0
LINE
  5
1BE
330
2
100
AcDbEntity
  8
0
 62
     7
 48
0.0024356842041016
100
AcDbLine
 10
2666.577817470285
 20
2137.774925538823
 30
0.0
 11
2666.480390102121
 21
2137.774925538823
 31
0.0
  0
LINE
  5
1BF
330
2
100
AcDbEntity
  8
0
 62
     7
 48
0.0016029357910156
100
AcDbLine
 10
2666.641934901926
 20
2137.774925538823
 30
0.0
 11
2666.577817470285
 21
2137.774925538823
 31
0.0
  0
LINE
  5
1C0
330
2
100
AcDbEntity
  8
0
 62
     7
 48
0.0049434784174421
100
AcDbLine
 10
2666.911572963449
 20
2137.635277101323
 30
0.0
 11
2666.735547572824
 21
2137.725364991948
 31
0.0
  0
LINE
  5
1C1
330
2
100
AcDbEntity
  8
0
 62
     7
 48
0.0026550521246707
100
AcDbLine
 10
2666.735547572824
 20
2137.725364991948
 30
0.0
 11
2666.641812831613
 21
2137.77529174976
 31
0.0
  0
LINE
  5
1C2
330
2
100
AcDbEntity
  8
0
 62
     7
 48
0.0040706634521484
100
AcDbLine
 10
2663.004834682199
 20
2137.774925538823
 30
0.0
 11
2662.842008144113
 21
2137.774925538823
 31
0.0
  0
LINE
  5
1C3
330
2
100
AcDbEntity
  8
0
 62
     7
 48
0.0040836334228516
100
AcDbLine
 10
2662.678861171457
 20
2137.774925538823
 30
0.0
 11
2662.515515834543
 21
2137.774925538823
 31
0.0
  0
LINE
  5
1C4
330
2
100
AcDbEntity
  8
0
 62
     7
 48
0.0040786743164063
100
AcDbLine
 10
2662.842008144113
 20
2137.774925538823
 30
0.0
 11
2662.678861171457
 21
2137.774925538823
 31
0.0
  0
LINE
  5
1C5
330
2
100
AcDbEntity
  8
0
 62
     7
 48
0.0038928985595703
100
AcDbLine
 10
2661.063947231028
 20
2137.774925538823
 30
0.0
 11
2660.908231288645
 21
2137.774925538823
 31
0.0
  0
LINE
  5
1C6
330
2
100
AcDbEntity
  8
0
 62
     7
 48
0.0039318084716797
100
AcDbLine
 10
2661.221219569894
 20
2137.774925538823
 30
0.0
 11
2661.063947231028
 21
2137.774925538823
 31
0.0
  0
LINE
  5
1C7
330
2
100
AcDbEntity
  8
0
 62
     7
 48
0.0039665222167969
100
AcDbLine
 10
2661.379880458566
 20
2137.774925538823
 30
0.0
 11
2661.221219569894
 21
2137.774925538823
 31
0.0
  0
LINE
  5
1C8
330
2
100
AcDbEntity
  8
0
 62
     7
 48
0.0039962768554688
100
AcDbLine
 10
2661.539731532785
 20
2137.774925538823
 30
0.0
 11
2661.379880458566
 21
2137.774925538823
 31
0.0
  0
LINE
  5
1C9
330
2
100
AcDbEntity
  8
0
 62
     7
 48
0.0040218353271484
100
AcDbLine
 10
2661.700604945871
 20
2137.774925538823
 30
0.0
 11
2661.539731532785
 21
2137.774925538823
 31
0.0
  0
LINE
  5
1CA
330
2
100
AcDbEntity
  8
0
 62
     7
 48
0.0040431976318359
100
AcDbLine
 10
2661.862332851145
 20
2137.774925538823
 30
0.0
 11
2661.700604945871
 21
2137.774925538823
 31
0.0
  0
LINE
  5
1CB
330
2
100
AcDbEntity
  8
0
 62
     7
 48
0.0040603637695313
100
AcDbLine
 10
2662.024747401926
 20
2137.774925538823
 30
0.0
 11
2661.862332851145
 21
2137.774925538823
 31
0.0
  0
LINE
  5
1CC
330
2
100
AcDbEntity
  8
0
 62
     7
 48
0.0040790557861328
100
AcDbLine
 10
2662.187909633371
 20
2137.774925538823
 30
0.0
 11
2662.024747401926
 21
2137.774925538823
 31
0.0
  0
LINE
  5
1CD
330
2
100
AcDbEntity
  8
0
 62
     7
 48
0.0040901184082031
100
AcDbLine
 10
2662.351514369699
 20
2137.774925538823
 30
0.0
 11
2662.187909633371
 21
2137.774925538823
 31
0.0
  0
LINE
  5
1CE
330
2
100
AcDbEntity
  8
0
 62
     7
 48
0.0041000366210938
100
AcDbLine
 10
2662.515515834543
 20
2137.774925538823
 30
0.0
 11
2662.351514369699
 21
2137.774925538823
 31
0.0
  0
LINE
  5
1CF
330
2
100
AcDbEntity
  8
0
 62
     7
 48
0.0040447235107422
100
AcDbLine
 10
2663.329114467356
 20
2137.774925538823
 30
0.0
 11
2663.167325526926
 21
2137.774925538823
 31
0.0
  0
LINE
  5
1D0
330
2
100
AcDbEntity
  8
0
 62
     7
 48
0.0040229797363281
100
AcDbLine
 10
2663.490033656809
 20
2137.774925538823
 30
0.0
 11
2663.329114467356
 21
2137.774925538823
 31
0.0
  0
LINE
  5
1D1
330
2
100
AcDbEntity
  8
0
 62
     7
 48
0.0039970397949219
100
AcDbLine
 10
2663.649915248606
 20
2137.774925538823
 30
0.0
 11
2663.490033656809
 21
2137.774925538823
 31
0.0
  0
LINE
  5
1D2
330
2
100
AcDbEntity
  8
0
 62
     7
 48
0.0039665222167969
100
AcDbLine
 10
2663.808576137277
 20
2137.774925538823
 30
0.0
 11
2663.649915248606
 21
2137.774925538823
 31
0.0
  0
LINE
  5
1D3
330
2
100
AcDbEntity
  8
0
 62
     7
 48
0.0039318084716797
100
AcDbLine
 10
2663.965848476145
 20
2137.774925538823
 30
0.0
 11
2663.808576137277
 21
2137.774925538823
 31
0.0
  0
LINE
  5
1D4
330
2
100
AcDbEntity
  8
0
 62
     7
 48
0.0038932800292969
100
AcDbLine
 10
2664.121579677316
 20
2137.774925538823
 30
0.0
 11
2663.965848476145
 21
2137.774925538823
 31
0.0
  0
LINE
  5
1D5
330
2
100
AcDbEntity
  8
0
 62
     7
 48
0.0038501739501953
100
AcDbLine
 10
2664.275586635324
 20
2137.774925538823
 30
0.0
 11
2664.121579677316
 21
2137.774925538823
 31
0.0
  0
LINE
  5
1D6
330
2
100
AcDbEntity
  8
0
 62
     7
 48
0.0038028717041016
100
AcDbLine
 10
2664.427701503488
 20
2137.774925538823
 30
0.0
 11
2664.275586635324
 21
2137.774925538823
 31
0.0
  0
LINE
  5
1D7
330
2
100
AcDbEntity
  8
0
 62
     7
 48
0.0037517547607422
100
AcDbLine
 10
2664.577771693918
 20
2137.774925538823
 30
0.0
 11
2664.427701503488
 21
2137.774925538823
 31
0.0
  0
LINE
  5
1D8
330
2
100
AcDbEntity
  8
0
 62
     7
 48
0.0036964416503906
100
AcDbLine
 10
2664.725629359934
 20
2137.774925538823
 30
0.0
 11
2664.577771693918
 21
2137.774925538823
 31
0.0
  0
LINE
  5
1D9
330
2
100
AcDbEntity
  8
0
 62
     7
 48
0.0036373138427734
100
AcDbLine
 10
2664.871121913645
 20
2137.774925538823
 30
0.0
 11
2664.725629359934
 21
2137.774925538823
 31
0.0
  0
LINE
  5
1DA
330
2
100
AcDbEntity
  8
0
 62
     7
 48
0.0035739898681641
100
AcDbLine
 10
2665.014081508371
 20
2137.774925538823
 30
0.0
 11
2664.871121913645
 21
2137.774925538823
 31
0.0
  0
LINE
  5
1DB
330
2
100
AcDbEntity
  8
0
 62
     7
 48
0.0035076141357422
100
AcDbLine
 10
2665.154386073801
 20
2137.774925538823
 30
0.0
 11
2665.014081508371
 21
2137.774925538823
 31
0.0
  0
LINE
  5
1DC
330
2
100
AcDbEntity
  8
0
 62
     7
 48
0.0034366607666016
100
AcDbLine
 10
2665.291852504465
 20
2137.774925538823
 30
0.0
 11
2665.154386073801
 21
2137.774925538823
 31
0.0
  0
LINE
  5
1DD
330
2
100
AcDbEntity
  8
0
 62
     7
 48
0.0033622741699219
100
AcDbLine
 10
2665.426343471262
 20
2137.774925538823
 30
0.0
 11
2665.291852504465
 21
2137.774925538823
 31
0.0
  0
LINE
  5
1DE
330
2
100
AcDbEntity
  8
0
 62
     7
 48
0.0032844543457031
100
AcDbLine
 10
2665.55772164509
 20
2137.774925538823
 30
0.0
 11
2665.426343471262
 21
2137.774925538823
 31
0.0
  0
LINE
  5
1DF
330
2
100
AcDbEntity
  8
0
 62
     7
 48
0.0032032012939453
100
AcDbLine
 10
2665.685849696848
 20
2137.774925538823
 30
0.0
 11
2665.55772164509
 21
2137.774925538823
 31
0.0
  0
LINE
  5
1E0
330
2
100
AcDbEntity
  8
0
 62
     7
 48
0.0031177520751953
100
AcDbLine
 10
2665.810559779856
 20
2137.774925538823
 30
0.0
 11
2665.685849696848
 21
2137.774925538823
 31
0.0
  0
LINE
  5
1E1
330
2
100
AcDbEntity
  8
0
 62
     7
 48
0.0030300140380859
100
AcDbLine
 10
2665.931760341379
 20
2137.774925538823
 30
0.0
 11
2665.810559779856
 21
2137.774925538823
 31
0.0
  0
LINE
  5
1E2
330
2
100
AcDbEntity
  8
0
 62
     7
 48
0.0029384613037109
100
AcDbLine
 10
2666.049298793527
 20
2137.774925538823
 30
0.0
 11
2665.931760341379
 21
2137.774925538823
 31
0.0
  0
LINE
  5
1E3
330
2
100
AcDbEntity
  8
0
 62
     7
 48
0.0040622711181641
100
AcDbLine
 10
2663.167325526926
 20
2137.774925538823
 30
0.0
 11
2663.004834682199
 21
2137.774925538823
 31
0.0
  0
LINE
  5
1E4
330
2
100
AcDbEntity
  8
0
 62
     7
 48
0.0028434753417969
100
AcDbLine
 10
2666.1630378072
 20
2137.774925538823
 30
0.0
 11
2666.049298793527
 21
2137.774925538823
 31
0.0
  0
LINE
  5
1E5
330
2
100
AcDbEntity
  8
0
 62
     7
 48
0.0042236522614853
100
AcDbLine
 10
2671.441480190011
 20
2136.334801027104
 30
0.0
 11
2671.274289638254
 21
2136.359093019291
 31
0.0
  0
LINE
  5
1E6
330
2
100
AcDbEntity
  8
0
 62
     7
 48
0.0020194911127903
100
AcDbLine
 10
2671.274289638254
 20
2136.359093019291
 30
0.0
 11
2671.194409877512
 21
2136.371116945073
 31
0.0
  0
LINE
  5
1E7
330
2
100
AcDbEntity
  8
0
 62
     7
 48
0.0063730057512975
100
AcDbLine
 10
2671.194409877512
 20
2136.371116945073
 30
0.0
 11
2670.942624599192
 21
2136.410972902104
 31
0.0
  0
LINE
  5
1E8
330
2
100
AcDbEntity
  8
0
 62
     7
 48
0.0001460007791182
100
AcDbLine
 10
2670.942624599192
 20
2136.410972902104
 30
0.0
 11
2670.936856776926
 21
2136.411888429448
 31
0.0
  0
LINE
  5
1E9
330
2
100
AcDbEntity
  8
0
 62
     7
 48
0.0063853635032691
100
AcDbLine
 10
2670.936856776926
 20
2136.411888429448
 30
0.0
 11
2670.685040981027
 21
2136.454613038823
 31
0.0
  0
LINE
  5
1EA
330
2
100
AcDbEntity
  8
0
 62
     7
 48
0.0015197671560654
100
AcDbLine
 10
2670.685040981027
 20
2136.454613038823
 30
0.0
 11
2670.625196010324
 21
2136.465294191166
 31
0.0
  0
LINE
  5
1EB
330
2
100
AcDbEntity
  8
0
 62
     7
 48
0.0028961183901707
100
AcDbLine
 10
2670.625196010324
 20
2136.465294191166
 30
0.0
 11
2670.511258632394
 21
2136.48622924976
 31
0.0
  0
LINE
  5
1EC
330
2
100
AcDbEntity
  8
0
 62
     7
 48
0.0044585871091593
100
AcDbLine
 10
2670.511258632394
 20
2136.48622924976
 30
0.0
 11
2670.336102992746
 21
2136.519798585698
 31
0.0
  0
LINE
  5
1ED
330
2
100
AcDbEntity
  8
0
 62
     7
 48
0.000072948542685
100
AcDbLine
 10
2670.336102992746
 20
2136.519798585698
 30
0.0
 11
2670.333249599192
 21
2136.52040893726
 31
0.0
  0
LINE
  5
1EE
330
2
100
AcDbEntity
  8
0
 62
     7
 48
0.0044990666340608
100
AcDbLine
 10
2670.333249599192
 20
2136.52040893726
 30
0.0
 11
2670.156766444895
 21
2136.555626222417
 31
0.0
  0
LINE
  5
1EF
330
2
100
AcDbEntity
  8
0
 62
     7
 48
0.0026670654741905
100
AcDbLine
 10
2670.156766444895
 20
2136.555626222417
 30
0.0
 11
2670.052320033762
 21
2136.577354738042
 31
0.0
  0
LINE
  5
1F0
330
2
100
AcDbEntity
  8
0
 62
     7
 48
0.0025625255500941
100
AcDbLine
 10
2670.052320033762
 20
2136.577354738042
 30
0.0
 11
2669.952069789621
 21
2136.598717042729
 31
0.0
  0
LINE
  5
1F1
330
2
100
AcDbEntity
  8
0
 62
     7
 48
0.0033626442799238
100
AcDbLine
 10
2669.952069789621
 20
2136.598717042729
 30
0.0
 11
2669.820752650949
 21
2136.62783081226
 31
0.0
  0
LINE
  5
1F2
330
2
100
AcDbEntity
  8
0
 62
     7
 48
0.0008106539552116
100
AcDbLine
 10
2669.820752650949
 20
2136.62783081226
 30
0.0
 11
2669.789136440012
 21
2136.635032960698
 31
0.0
  0
LINE
  5
1F3
330
2
100
AcDbEntity
  8
0
 62
     7
 48
0.0025713405162551
100
AcDbLine
 10
2669.789136440012
 20
2136.635032960698
 30
0.0
 11
2669.688931972238
 21
2136.658226320073
 31
0.0
  0
LINE
  5
1F4
330
2
100
AcDbEntity
  8
0
 62
     7
 48
0.0034097216300574
100
AcDbLine
 10
2669.688931972238
 20
2136.658226320073
 30
0.0
 11
2669.556287318918
 21
2136.689964601323
 31
0.0
  0
LINE
  5
1F5
330
2
100
AcDbEntity
  8
0
 62
     7
 48
0.0002783069377329
100
AcDbLine
 10
2669.556287318918
 20
2136.689964601323
 30
0.0
 11
2669.545468837473
 21
2136.692589113041
 31
0.0
  0
LINE
  5
1F6
330
2
100
AcDbEntity
  8
0
 62
     7
 48
0.0031627090020241
100
AcDbLine
 10
2669.545468837473
 20
2136.692589113041
 30
0.0
 11
2669.422681361887
 21
2136.72304565601
 31
0.0
  0
LINE
  5
1F7
330
2
100
AcDbEntity
  8
0
 62
     7
 48
0.0027008962885421
100
AcDbLine
 10
2669.422681361887
 20
2136.72304565601
 30
0.0
 11
2669.318036586496
 21
2136.74990112476
 31
0.0
  0
LINE
  5
1F8
330
2
100
AcDbEntity
  8
0
 62
     7
 48
0.0007535123141756
100
AcDbLine
 10
2669.318036586496
 20
2136.74990112476
 30
0.0
 11
2669.288861781808
 21
2136.757469484135
 31
0.0
  0
LINE
  5
1F9
330
2
100
AcDbEntity
  8
0
 62
     7
 48
0.003767289646509
100
AcDbLine
 10
2669.288861781808
 20
2136.757469484135
 30
0.0
 11
2669.143353969309
 21
2136.796654054447
 31
0.0
  0
LINE
  5
1FA
330
2
100
AcDbEntity
  8
0
 62
     7
 48
0.0007667158126736
100
AcDbLine
 10
2669.143353969309
 20
2136.796654054447
 30
0.0
 11
2669.113812953684
 21
2136.804893800542
 31
0.0
  0
LINE
  5
1FB
330
2
100
AcDbEntity
  8
0
 62
     7
 48
0.0030020460518953
100
AcDbLine
 10
2669.113812953684
 20
2136.804893800542
 30
0.0
 11
2668.998273402902
 21
2136.837608644291
 31
0.0
  0
LINE
  5
1FC
330
2
100
AcDbEntity
  8
0
 62
     7
 48
0.0018686580256667
100
AcDbLine
 10
2668.998273402902
 20
2136.837608644291
 30
0.0
 11
2668.926465541574
 21
2136.858360597416
 31
0.0
  0
LINE
  5
1FD
330
2
100
AcDbEntity
  8
0
 62
     7
 48
0.0020071480167868
100
AcDbLine
 10
2668.926465541574
 20
2136.858360597416
 30
0.0
 11
2668.849332362864
 21
2136.880638429448
 31
0.0
  0
LINE
  5
1FE
330
2
100
AcDbEntity
  8
0
 62
     7
 48
0.0027978166275107
100
AcDbLine
 10
2668.849332362864
 20
2136.880638429448
 30
0.0
 11
2668.742032558176
 21
2136.912437745854
 31
0.0
  0
LINE
  5
1FF
330
2
100
AcDbEntity
  8
0
 62
     7
 48
0.0011633763499229
100
AcDbLine
 10
2668.742032558176
 20
2136.912437745854
 30
0.0
 11
2668.697476894113
 21
2136.925865480229
 31
0.0
  0
LINE
  5
200
330
2
100
AcDbEntity
  8
0
 62
     7
 48
0.0027648357623412
100
AcDbLine
 10
2668.697476894113
 20
2136.925865480229
 30
0.0
 11
2668.591870815012
 21
2136.958702394291
 31
0.0
  0
LINE
  5
201
330
2
100
AcDbEntity
  8
0
 62
     7
 48
0.0008313527733921
100
AcDbLine
 10
2668.591870815012
 20
2136.958702394291
 30
0.0
 11
2668.560178310129
 21
2136.968773195073
 31
0.0
  0
LINE
  5
202
330
2
100
AcDbEntity
  8
0
 62
     7
 48
0.0019280192486935
100
AcDbLine
 10
2668.560178310129
 20
2136.968773195073
 30
0.0
 11
2668.486783534739
 21
2136.992454835698
 31
0.0
  0
LINE
  5
203
330
2
100
AcDbEntity
  8
0
 62
     7
 48
0.0027535317763248
100
AcDbLine
 10
2668.486783534739
 20
2136.992454835698
 30
0.0
 11
2668.38226082966
 21
2137.027183839604
 31
0.0
  0
LINE
  5
204
330
2
100
AcDbEntity
  8
0
 62
     7
 48
0.0002024263991016
100
AcDbLine
 10
2668.38226082966
 20
2137.027183839604
 30
0.0
 11
2668.374600917551
 21
2137.029808351323
 31
0.0
  0
LINE
  5
205
330
2
100
AcDbEntity
  8
0
 62
     7
 48
0.0025485691810483
100
AcDbLine
 10
2668.374600917551
 20
2137.029808351323
 30
0.0
 11
2668.278195888254
 21
2137.062950441166
 31
0.0
  0
LINE
  5
206
330
2
100
AcDbEntity
  8
0
 62
     7
 48
0.0025846794286419
100
AcDbLine
 10
2668.278195888254
 20
2137.062950441166
 30
0.0
 11
2668.180600673411
 21
2137.09706909351
 31
0.0
  0
LINE
  5
207
330
2
100
AcDbEntity
  8
0
 62
     7
 48
0.0002159603859668
100
AcDbLine
 10
2668.180600673411
 20
2137.09706909351
 30
0.0
 11
2668.172452480051
 21
2137.099937745854
 31
0.0
  0
LINE
  5
208
330
2
100
AcDbEntity
  8
0
 62
     7
 48
0.0025323391638593
100
AcDbLine
 10
2668.172452480051
 20
2137.099937745854
 30
0.0
 11
2668.076947719308
 21
2137.13369018726
 31
0.0
  0
LINE
  5
209
330
2
100
AcDbEntity
  8
0
 62
     7
 48
0.0025427653748481
100
AcDbLine
 10
2668.076947719308
 20
2137.13369018726
 30
0.0
 11
2667.981305629465
 21
2137.168297120854
 31
0.0
  0
LINE
  5
20A
330
2
100
AcDbEntity
  8
0
 62
     7
 48
0.0003191422332854
100
AcDbLine
 10
2667.981305629465
 20
2137.168297120854
 30
0.0
 11
2667.96934273884
 21
2137.17275268726
 31
0.0
  0
LINE
  5
20B
330
2
100
AcDbEntity
  8
0
 62
     7
 48
0.0021714900404275
100
AcDbLine
 10
2667.96934273884
 20
2137.17275268726
 30
0.0
 11
2667.888089687082
 21
2137.203453370854
 31
0.0
  0
LINE
  5
20C
330
2
100
AcDbEntity
  8
0
 62
     7
 48
0.0024315109287761
100
AcDbLine
 10
2667.888089687082
 20
2137.203453370854
 30
0.0
 11
2667.797620326731
 21
2137.23915893726
 31
0.0
  0
LINE
  5
20D
330
2
100
AcDbEntity
  8
0
 62
     7
 48
0.0010662662305888
100
AcDbLine
 10
2667.797620326731
 20
2137.23915893726
 30
0.0
 11
2667.758130580637
 21
2137.25527221851
 31
0.0
  0
LINE
  5
20E
330
2
100
AcDbEntity
  8
0
 62
     7
 48
0.0013174301532902
100
AcDbLine
 10
2667.758130580637
 20
2137.25527221851
 30
0.0
 11
2667.70940926716
 21
2137.275352784916
 31
0.0
  0
LINE
  5
20F
330
2
100
AcDbEntity
  8
0
 62
     7
 48
0.0021409512537912
100
AcDbLine
 10
2667.70940926716
 20
2137.275352784916
 30
0.0
 11
2667.630521327707
 21
2137.308677980229
 31
0.0
  0
LINE
  5
210
330
2
100
AcDbEntity
  8
0
 62
     7
 48
0.0021311160581152
100
AcDbLine
 10
2667.630521327707
 20
2137.308677980229
 30
0.0
 11
2667.552060634347
 21
2137.342003175541
 31
0.0
  0
LINE
  5
211
330
2
100
AcDbEntity
  8
0
 62
     7
 48
0.0000642184769028
100
AcDbLine
 10
2667.552060634347
 20
2137.342003175541
 30
0.0
 11
2667.549710780832
 21
2137.343040773198
 31
0.0
  0
LINE
  5
212
330
2
100
AcDbEntity
  8
0
 62
     7
 48
0.0022867498905798
100
AcDbLine
 10
2667.549710780832
 20
2137.343040773198
 30
0.0
 11
2667.465497523996
 21
2137.378746339604
 31
0.0
  0
LINE
  5
213
330
2
100
AcDbEntity
  8
0
 62
     7
 48
0.0023405788744315
100
AcDbLine
 10
2667.465497523996
 20
2137.378746339604
 30
0.0
 11
2667.379437953684
 21
2137.415611573979
 31
0.0
  0
LINE
  5
214
330
2
100
AcDbEntity
  8
0
 62
     7
 48
0.0009679919650765
100
AcDbLine
 10
2667.379437953684
 20
2137.415611573979
 30
0.0
 11
2667.343930751535
 21
2137.43105346851
 31
0.0
  0
LINE
  5
215
330
2
100
AcDbEntity
  8
0
 62
     7
 48
0.0013715619222057
100
AcDbLine
 10
2667.343930751535
 20
2137.43105346851
 30
0.0
 11
2667.29371407673
 21
2137.453148195072
 31
0.0
  0
LINE
  5
216
330
2
100
AcDbEntity
  8
0
 62
     7
 48
0.0021508845365474
100
AcDbLine
 10
2667.29371407673
 20
2137.453148195072
 30
0.0
 11
2667.215299159738
 21
2137.488548585698
 31
0.0
  0
LINE
  5
217
330
2
100
AcDbEntity
  8
0
 62
     7
 48
0.001514974349072
100
AcDbLine
 10
2667.215299159738
 20
2137.488548585698
 30
0.0
 11
2667.160275966379
 21
2137.513939210698
 31
0.0
  0
LINE
  5
218
330
2
100
AcDbEntity
  8
0
 62
     7
 48
0.0006239800027647
100
AcDbLine
 10
2667.160275966379
 20
2137.513939210698
 30
0.0
 11
2667.13763192341
 21
2137.524437257573
 31
0.0
  0
LINE
  5
219
330
2
100
AcDbEntity
  8
0
 62
     7
 48
0.0021264290409709
100
AcDbLine
 10
2667.13763192341
 20
2137.524437257573
 30
0.0
 11
2667.060803920481
 21
2137.56093628101
 31
0.0
  0
LINE
  5
21A
330
2
100
AcDbEntity
  8
0
 62
     7
 48
0.0018660984749621
100
AcDbLine
 10
2667.060803920481
 20
2137.56093628101
 30
0.0
 11
2666.993711024973
 21
2137.59365112476
 31
0.0
  0
LINE
  5
21B
330
2
100
AcDbEntity
  8
0
 62
     7
 48
0.0002340633088042
100
AcDbLine
 10
2666.993711024973
 20
2137.59365112476
 30
0.0
 11
2666.985318690988
 21
2137.597801515385
 31
0.0
  0
LINE
  5
21C
330
2
100
AcDbEntity
  8
0
 62
     7
 48
0.004683450909541
100
AcDbLine
 10
2671.441556483957
 20
2136.334923097416
 30
0.0
 11
2671.256162196848
 21
2136.361839601323
 31
0.0
  0
LINE
  5
21D
330
2
100
AcDbEntity
  8
0
 62
     7
 48
0.0047470308583528
100
AcDbLine
 10
2671.256162196848
 20
2136.361839601323
 30
0.0
 11
2671.068479091379
 21
2136.390648195073
 31
0.0
  0
LINE
  5
21E
330
2
100
AcDbEntity
  8
0
 62
     7
 48
0.0048239423623429
100
AcDbLine
 10
2671.068479091379
 20
2136.390648195073
 30
0.0
 11
2670.878018886301
 21
2136.421593019292
 31
0.0
  0
LINE
  5
21F
330
2
100
AcDbEntity
  8
0
 62
     7
 48
0.0048949610856484
100
AcDbLine
 10
2670.878018886301
 20
2136.421593019292
 30
0.0
 11
2670.685056239817
 21
2136.454796144291
 31
0.0
  0
LINE
  5
220
330
2
100
AcDbEntity
  8
0
 62
     7
 48
0.0061264306135529
100
AcDbLine
 10
2670.685056239817
 20
2136.454796144291
 30
0.0
 11
2670.443982631418
 21
2136.498802491948
 31
0.0
  0
LINE
  5
221
330
2
100
AcDbEntity
  8
0
 62
     7
 48
0.0010214349679368
100
AcDbLine
 10
2670.443982631418
 20
2136.498802491948
 30
0.0
 11
2670.403867274973
 21
2136.506553956791
 31
0.0
  0
LINE
  5
222
330
2
100
AcDbEntity
  8
0
 62
     7
 48
0.005207040039129
100
AcDbLine
 10
2670.403867274973
 20
2136.506553956791
 30
0.0
 11
2670.199506313059
 21
2136.54677612476
 31
0.0
  0
LINE
  5
223
330
2
100
AcDbEntity
  8
0
 62
     7
 48
0.0063121479356614
100
AcDbLine
 10
2670.199506313059
 20
2136.54677612476
 30
0.0
 11
2669.95242074177
 21
2136.598717042729
 31
0.0
  0
LINE
  5
224
330
2
100
AcDbEntity
  8
0
 62
     7
 48
0.0056168349203314
100
AcDbLine
 10
2669.95242074177
 20
2136.598717042729
 30
0.0
 11
2669.733212978098
 21
2136.647972413823
 31
0.0
  0
LINE
  5
225
330
2
100
AcDbEntity
  8
0
 62
     7
 48
0.0056825090795638
100
AcDbLine
 10
2669.733212978098
 20
2136.647972413823
 30
0.0
 11
2669.51214364216
 21
2136.700828859135
 31
0.0
  0
LINE
  5
226
330
2
100
AcDbEntity
  8
0
 62
     7
 48
0.0057496056680637
100
AcDbLine
 10
2669.51214364216
 20
2136.700828859135
 30
0.0
 11
2669.289243251535
 21
2136.757469484135
 31
0.0
  0
LINE
  5
227
330
2
100
AcDbEntity
  8
0
 62
     7
 48
0.0050776071009271
100
AcDbLine
 10
2669.289243251535
 20
2136.757469484135
 30
0.0
 11
2669.093137294504
 21
2136.810325929448
 31
0.0
  0
LINE
  5
228
330
2
100
AcDbEntity
  8
0
 62
     7
 48
0.0051256636860021
100
AcDbLine
 10
2669.093137294504
 20
2136.810325929448
 30
0.0
 11
2668.89593270466
 21
2136.866417238041
 31
0.0
  0
LINE
  5
229
330
2
100
AcDbEntity
  8
0
 62
     7
 48
0.0051772409221802
100
AcDbLine
 10
2668.89593270466
 20
2136.866417238041
 30
0.0
 11
2668.697614223215
 21
2136.926048585698
 31
0.0
  0
LINE
  5
22A
330
2
100
AcDbEntity
  8
0
 62
     7
 48
0.0045756397341893
100
AcDbLine
 10
2668.697614223215
 20
2136.926048585698
 30
0.0
 11
2668.523084193918
 21
2136.981163331792
 31
0.0
  0
LINE
  5
22B
330
2
100
AcDbEntity
  8
0
 62
     7
 48
0.0046086062279199
100
AcDbLine
 10
2668.523084193918
 20
2136.981163331792
 30
0.0
 11
2668.348096400949
 21
2137.039146730229
 31
0.0
  0
LINE
  5
22C
330
2
100
AcDbEntity
  8
0
 62
     7
 48
0.0046354875175191
100
AcDbLine
 10
2668.348096400949
 20
2137.039146730229
 30
0.0
 11
2668.172925502512
 21
2137.099937745854
 31
0.0
  0
LINE
  5
22D
330
2
100
AcDbEntity
  8
0
 62
     7
 48
0.0061668914774806
100
AcDbLine
 10
2668.172925502512
 20
2137.099937745854
 30
0.0
 11
2667.94134286091
 21
2137.184898683354
 31
0.0
  0
LINE
  5
22E
330
2
100
AcDbEntity
  8
0
 62
     7
 48
0.0062186160176674
100
AcDbLine
 10
2667.94134286091
 20
2137.184898683354
 30
0.0
 11
2667.709699184152
 21
2137.275535890385
 31
0.0
  0
LINE
  5
22F
330
2
100
AcDbEntity
  8
0
 62
     7
 48
0.0056344851373614
100
AcDbLine
 10
2667.709699184152
 20
2137.275535890385
 30
0.0
 11
2667.501599818918
 21
2137.362083741948
 31
0.0
  0
LINE
  5
230
330
2
100
AcDbEntity
  8
0
 62
     7
 48
0.0056647419521974
100
AcDbLine
 10
2667.501599818918
 20
2137.362083741948
 30
0.0
 11
2667.294141322824
 21
2137.453209230229
 31
0.0
  0
LINE
  5
231
330
2
100
AcDbEntity
  8
0
 62
     7
 48
0.0049598634582212
100
AcDbLine
 10
2667.294141322824
 20
2137.453209230229
 30
0.0
 11
2667.114087611887
 21
2137.53652221851
 31
0.0
  0
LINE
  5
232
330
2
100
AcDbEntity
  8
0
 62
     7
 48
0.0003252093742383
100
AcDbLine
 10
2667.114087611887
 20
2137.53652221851
 30
0.0
 11
2667.102353603098
 21
2137.542137452885
 31
0.0
  0
LINE
  5
233
330
2
100
AcDbEntity
  8
0
 62
     7
 48
0.0053823859546841
100
AcDbLine
 10
2671.654798061105
 20
2136.305687257573
 30
0.0
 11
2671.441480190011
 21
2136.334801027104
 31
0.0
  0
LINE
  5
234
330
2
100
AcDbEntity
  8
0
 62
     7
 48
0.0062916484193706
100
AcDbLine
 10
2671.690915614817
 20
2136.300926515385
 30
0.0
 11
2671.441556483957
 21
2136.334923097416
 31
0.0
  0
LINE
  5
235
330
2
100
AcDbEntity
  8
0
 62
     7
 48
0.0035072326660156
100
AcDbLine
 10
2660.015714198801
 20
2137.774925538823
 30
0.0
 11
2659.87542489216
 21
2137.774925538823
 31
0.0
  0
LINE
  5
236
330
2
100
AcDbEntity
  8
0
 62
     7
 48
0.0035743713378906
100
AcDbLine
 10
2660.158689052317
 20
2137.774925538823
 30
0.0
 11
2660.015714198801
 21
2137.774925538823
 31
0.0
  0
LINE
  5
237
330
2
100
AcDbEntity
  8
0
 62
     7
 48
0.0036373138427734
100
AcDbLine
 10
2660.304181606027
 20
2137.774925538823
 30
0.0
 11
2660.158689052317
 21
2137.774925538823
 31
0.0
  0
LINE
  5
238
330
2
100
AcDbEntity
  8
0
 62
     7
 48
0.0036964416503906
100
AcDbLine
 10
2660.452039272043
 20
2137.774925538823
 30
0.0
 11
2660.304181606027
 21
2137.774925538823
 31
0.0
  0
LINE
  5
239
330
2
100
AcDbEntity
  8
0
 62
     7
 48
0.0037517547607422
100
AcDbLine
 10
2660.602109462473
 20
2137.774925538823
 30
0.0
 11
2660.452039272043
 21
2137.774925538823
 31
0.0
  0
LINE
  5
23A
330
2
100
AcDbEntity
  8
0
 62
     7
 48
0.0038028717041016
100
AcDbLine
 10
2660.754224330637
 20
2137.774925538823
 30
0.0
 11
2660.602109462473
 21
2137.774925538823
 31
0.0
  0
LINE
  5
23B
330
2
100
AcDbEntity
  8
0
 62
     7
 48
0.0000959396362305
100
AcDbLine
 10
2657.520368129465
 20
2137.774925538823
 30
0.0
 11
2657.516530544016
 21
2137.774925538823
 31
0.0
  0
LINE
  5
23C
330
2
100
AcDbEntity
  8
0
 62
     7
 48
0.0002891540527344
100
AcDbLine
 10
2657.531934291574
 20
2137.774925538823
 30
0.0
 11
2657.520368129465
 21
2137.774925538823
 31
0.0
  0
LINE
  5
23D
330
2
100
AcDbEntity
  8
0
 62
     7
 48
0.000480842590332
100
AcDbLine
 10
2657.551167995188
 20
2137.774925538823
 30
0.0
 11
2657.531934291574
 21
2137.774925538823
 31
0.0
  0
LINE
  5
23E
330
2
100
AcDbEntity
  8
0
 62
     7
 48
0.0006725311279297
100
AcDbLine
 10
2657.578069240305
 20
2137.774925538823
 30
0.0
 11
2657.551167995188
 21
2137.774925538823
 31
0.0
  0
LINE
  5
23F
330
2
100
AcDbEntity
  8
0
 62
     7
 48
0.0008625030517578
100
AcDbLine
 10
2657.612569362375
 20
2137.774925538823
 30
0.0
 11
2657.578069240305
 21
2137.774925538823
 31
0.0
  0
LINE
  5
240
330
2
100
AcDbEntity
  8
0
 62
     7
 48
0.0008632659912109
100
AcDbLine
 10
2657.647100002023
 20
2137.774925538823
 30
0.0
 11
2657.612569362375
 21
2137.774925538823
 31
0.0
  0
LINE
  5
241
330
2
100
AcDbEntity
  8
0
 62
     7
 48
0.000993537902832
100
AcDbLine
 10
2657.686841518136
 20
2137.774925538823
 30
0.0
 11
2657.647100002023
 21
2137.774925538823
 31
0.0
  0
LINE
  5
242
330
2
100
AcDbEntity
  8
0
 62
     7
 48
0.0011228561401367
100
AcDbLine
 10
2657.731755763742
 20
2137.774925538823
 30
0.0
 11
2657.686841518136
 21
2137.774925538823
 31
0.0
  0
LINE
  5
243
330
2
100
AcDbEntity
  8
0
 62
     7
 48
0.0012508392333984
100
AcDbLine
 10
2657.781789333078
 20
2137.774925538823
 30
0.0
 11
2657.731755763742
 21
2137.774925538823
 31
0.0
  0
LINE
  5
244
330
2
100
AcDbEntity
  8
0
 62
     7
 48
0.0013776779174805
100
AcDbLine
 10
2657.836896449778
 20
2137.774925538823
 30
0.0
 11
2657.781789333078
 21
2137.774925538823
 31
0.0
  0
LINE
  5
245
330
2
100
AcDbEntity
  8
0
 62
     7
 48
0.001502799987793
100
AcDbLine
 10
2657.897008449289
 20
2137.774925538823
 30
0.0
 11
2657.836896449778
 21
2137.774925538823
 31
0.0
  0
LINE
  5
246
330
2
100
AcDbEntity
  8
0
 62
     7
 48
0.0016262054443359
100
AcDbLine
 10
2657.962056667062
 20
2137.774925538823
 30
0.0
 11
2657.897008449289
 21
2137.774925538823
 31
0.0
  0
LINE
  5
247
330
2
100
AcDbEntity
  8
0
 62
     7
 48
0.0017484664916992
100
AcDbLine
 10
2658.031995326731
 20
2137.774925538823
 30
0.0
 11
2657.962056667062
 21
2137.774925538823
 31
0.0
  0
LINE
  5
248
330
2
100
AcDbEntity
  8
0
 62
     7
 48
0.0018682479858398
100
AcDbLine
 10
2658.106725246164
 20
2137.774925538823
 30
0.0
 11
2658.031995326731
 21
2137.774925538823
 31
0.0
  0
LINE
  5
249
330
2
100
AcDbEntity
  8
0
 62
     7
 48
0.0019863128662109
100
AcDbLine
 10
2658.186177760812
 20
2137.774925538823
 30
0.0
 11
2658.106725246164
 21
2137.774925538823
 31
0.0
  0
LINE
  5
24A
330
2
100
AcDbEntity
  8
0
 62
     7
 48
0.0021022796630859
100
AcDbLine
 10
2658.270268947336
 20
2137.774925538823
 30
0.0
 11
2658.186177760812
 21
2137.774925538823
 31
0.0
  0
LINE
  5
24B
330
2
100
AcDbEntity
  8
0
 62
     7
 48
0.0022157669067383
100
AcDbLine
 10
2658.358899623606
 20
2137.774925538823
 30
0.0
 11
2658.270268947336
 21
2137.774925538823
 31
0.0
  0
LINE
  5
24C
330
2
100
AcDbEntity
  8
0
 62
     7
 48
0.0023271560668945
100
AcDbLine
 10
2658.451985866281
 20
2137.774925538823
 30
0.0
 11
2658.358899623606
 21
2137.774925538823
 31
0.0
  0
LINE
  5
24D
330
2
100
AcDbEntity
  8
0
 62
     7
 48
0.0024358749389648
100
AcDbLine
 10
2658.54942086384
 20
2137.774925538823
 30
0.0
 11
2658.451985866281
 21
2137.774925538823
 31
0.0
  0
LINE
  5
24E
330
2
100
AcDbEntity
  8
0
 62
     7
 48
0.0025421142578125
100
AcDbLine
 10
2658.651105434152
 20
2137.774925538823
 30
0.0
 11
2658.54942086384
 21
2137.774925538823
 31
0.0
  0
LINE
  5
24F
330
2
100
AcDbEntity
  8
0
 62
     7
 48
0.0026454925537109
100
AcDbLine
 10
2658.756925136301
 20
2137.774925538823
 30
0.0
 11
2658.651105434152
 21
2137.774925538823
 31
0.0
  0
LINE
  5
250
330
2
100
AcDbEntity
  8
0
 62
     7
 48
0.0027458190917969
100
AcDbLine
 10
2658.866757899973
 20
2137.774925538823
 30
0.0
 11
2658.756925136301
 21
2137.774925538823
 31
0.0
  0
LINE
  5
251
330
2
100
AcDbEntity
  8
0
 62
     7
 48
0.0028438568115234
100
AcDbLine
 10
2658.980512172433
 20
2137.774925538823
 30
0.0
 11
2658.866757899973
 21
2137.774925538823
 31
0.0
  0
LINE
  5
252
330
2
100
AcDbEntity
  8
0
 62
     7
 48
0.0029384613037109
100
AcDbLine
 10
2659.098050624582
 20
2137.774925538823
 30
0.0
 11
2658.980512172433
 21
2137.774925538823
 31
0.0
  0
LINE
  5
253
330
2
100
AcDbEntity
  8
0
 62
     7
 48
0.0030300140380859
100
AcDbLine
 10
2659.219251186105
 20
2137.774925538823
 30
0.0
 11
2659.098050624582
 21
2137.774925538823
 31
0.0
  0
LINE
  5
254
330
2
100
AcDbEntity
  8
0
 62
     7
 48
0.0031177520751953
100
AcDbLine
 10
2659.343961269113
 20
2137.774925538823
 30
0.0
 11
2659.219251186105
 21
2137.774925538823
 31
0.0
  0
LINE
  5
255
330
2
100
AcDbEntity
  8
0
 62
     7
 48
0.0032032012939453
100
AcDbLine
 10
2659.472089320871
 20
2137.774925538823
 30
0.0
 11
2659.343961269113
 21
2137.774925538823
 31
0.0
  0
LINE
  5
256
330
2
100
AcDbEntity
  8
0
 62
     7
 48
0.0032840728759766
100
AcDbLine
 10
2659.60345223591
 20
2137.774925538823
 30
0.0
 11
2659.472089320871
 21
2137.774925538823
 31
0.0
  0
LINE
  5
257
330
2
100
AcDbEntity
  8
0
 62
     7
 48
0.0033626556396484
100
AcDbLine
 10
2659.737958461496
 20
2137.774925538823
 30
0.0
 11
2659.60345223591
 21
2137.774925538823
 31
0.0
  0
LINE
  5
258
330
2
100
AcDbEntity
  8
0
 62
     7
 48
0.0034366607666016
100
AcDbLine
 10
2659.87542489216
 20
2137.774925538823
 30
0.0
 11
2659.737958461496
 21
2137.774925538823
 31
0.0
  0
LINE
  5
259
330
2
100
AcDbEntity
  8
0
 62
     7
 48
0.0038501739501953
100
AcDbLine
 10
2660.908231288645
 20
2137.774925538823
 30
0.0
 11
2660.754224330637
 21
2137.774925538823
 31
0.0
  0
LINE
  5
25A
330
2
100
AcDbEntity
  8
0
 62
     7
 48
0.2281347274780273
100
AcDbLine
 10
2666.641919643137
 20
2137.774925538823
 30
0.0
 11
2657.516530544016
 21
2137.774925538823
 31
0.0
  0
LINE
  5
25B
330
2
100
AcDbEntity
  8
0
 62
     7
 48
0.1985099792480469
100
AcDbLine
 10
2666.485105067941
 20
2137.774925538823
 30
0.0
 11
2658.54470589802
 21
2137.774925538823
 31
0.0
  0
ARC
  5
25C
330
2
100
AcDbEntity
  8
0
100
AcDbCircle
 10
2226.37091634692
 20
2159.911873504655
 30
0.0
 40
481.7146286281221
100
AcDbArc
 50
341.2683601823626
 51
347.44714690322
  0
ARC
  5
25D
330
2
100
AcDbEntity
  8
0
100
AcDbCircle
 10
2700.013002055995
 20
2127.215960103577
 30
0.0
 40
8.0
100
AcDbArc
 50
355.3930246472402
 51
90.0
  0
ARC
  5
25E
330
2
100
AcDbEntity
  8
0
100
AcDbCircle
 10
1455.243848918198
 20
2304.46477657001
 30
0.0
 40
1266.103113099931
100
AcDbArc
 50
348.6464264183307
 51
350.9456261381988
  0
ARC
  5
25F
330
2
100
AcDbEntity
  8
0
100
AcDbCircle
 10
2375.891424567509
 20
2153.33387835333
 30
0.0
 40
333.1721738515235
100
AcDbArc
 50
351.6960985589697
 51
355.3930246472402
  0
ARC
  5
260
330
2
100
AcDbEntity
  8
0
100
AcDbCircle
 10
2711.889748638679
 20
2161.952287644574
 30
0.0
 40
2.729094897747954
100
AcDbArc
 50
352.0854131665237
 51
7.262016841177163
  0
LINE
  5
261
330
2
100
AcDbEntity
  8
0
 62
     7
 48
0.0024549130003081
100
AcDbLine
 10
2714.572232753488
 20
2161.480491945073
 30
0.0
 11
2714.592847377512
 21
2161.576500245854
 31
0.0
  0
LINE
  5
262
330
2
100
AcDbEntity
  8
0
 62
     7
 48
0.0026975131035262
100
AcDbLine
 10
2711.318173915598
 20
2159.480736085698
 30
0.0
 11
2711.213498622629
 21
2159.454552003666
 31
0.0
  0
LINE
  5
263
330
2
100
AcDbEntity
  8
0
 62
     7
 48
0.0044104957015959
100
AcDbLine
 10
2711.213498622629
 20
2159.454552003666
 30
0.0
 11
2711.041898280832
 21
2159.413597413823
 31
0.0
  0
LINE
  5
264
330
2
100
AcDbEntity
  8
0
 62
     7
 48
0.0031571776784221
100
AcDbLine
 10
2711.094159633371
 20
2159.425926515385
 30
0.0
 11
2710.971173793527
 21
2159.397239991947
 31
0.0
  0
LINE
  5
265
330
2
100
AcDbEntity
  8
0
 62
     7
 48
0.0030681033367962
100
AcDbLine
 10
2711.213498622629
 20
2159.454552003666
 30
0.0
 11
2711.094159633371
 21
2159.425926515385
 31
0.0
  0
LINE
  5
266
330
2
100
AcDbEntity
  8
0
 62
     7
 48
0.0027182418153725
100
AcDbLine
 10
2711.319028407785
 20
2159.480736085698
 30
0.0
 11
2711.213498622629
 21
2159.454552003666
 31
0.0
  0
LWPOLYLINE
  5
267
330
2
100
AcDbEntity
  8
0
 62
     7
100
AcDbPolyline
 90
        3
 70
     0
 43
0.0
 10
2719.906110316965
 20
2140.550804445072
 10
2719.834226161692
 20
2141.168114015385
 10
2719.65064767048
 20
2141.738060304448
  0
LINE
  5
268
330
2
100
AcDbEntity
  8
0
 62
     7
 48
0.0035567507415182
100
AcDbLine
 10
2719.781720668527
 20
2141.118858644291
 30
0.0
 11
2719.725751430246
 21
2141.249656984135
 31
0.0
  0
LINE
  5
269
330
2
100
AcDbEntity
  8
0
 62
     7
 48
0.0001277940664604
100
AcDbLine
 10
2719.783582240793
 20
2141.114097902104
 30
0.0
 11
2719.781720668527
 21
2141.118858644291
 31
0.0
  0
LINE
  5
26A
330
2
100
AcDbEntity
  8
0
 62
     7
 48
0.0021565986728025
100
AcDbLine
 10
2719.895947963449
 20
2140.699180909916
 30
0.0
 11
2719.882092982981
 21
2140.784324952885
 31
0.0
  0
LINE
  5
26B
330
2
100
AcDbEntity
  8
0
 62
     7
 48
0.0020635003591434
100
AcDbLine
 10
2719.903928310129
 20
2140.617027589604
 30
0.0
 11
2719.895947963449
 21
2140.699180909916
 31
0.0
  0
LINE
  5
26C
330
2
100
AcDbEntity
  8
0
 62
     7
 48
0.0019797853968772
100
AcDbLine
 10
2719.906064540598
 20
2140.537864991947
 30
0.0
 11
2719.903928310129
 21
2140.617027589604
 31
0.0
  0
LINE
  5
26D
330
2
100
AcDbEntity
  8
0
 62
     7
 48
0.0019065331813974
100
AcDbLine
 10
2719.902371913645
 20
2140.461693116948
 30
0.0
 11
2719.906064540598
 21
2140.537864991947
 31
0.0
  0
LINE
  5
26E
330
2
100
AcDbEntity
  8
0
 62
     7
 48
0.00190803885369
100
AcDbLine
 10
2719.902387172433
 20
2140.462242433354
 30
0.0
 11
2719.906064540598
 21
2140.53847534351
 31
0.0
  0
LINE
  5
26F
330
2
100
AcDbEntity
  8
0
 62
     7
 48
0.0019782600736754
100
AcDbLine
 10
2719.906064540598
 20
2140.53847534351
 30
0.0
 11
2719.903928310129
 21
2140.61757690601
 31
0.0
  0
LINE
  5
270
330
2
100
AcDbEntity
  8
0
 62
     7
 48
0.0020619816341482
100
AcDbLine
 10
2719.903928310129
 20
2140.61757690601
 30
0.0
 11
2719.895947963449
 21
2140.699669191167
 31
0.0
  0
LINE
  5
271
330
2
100
AcDbEntity
  8
0
 62
     7
 48
0.0021521420198763
100
AcDbLine
 10
2719.895947963449
 20
2140.699669191167
 30
0.0
 11
2719.882077724191
 21
2140.784630128667
 31
0.0
  0
LINE
  5
272
330
2
100
AcDbEntity
  8
0
 62
     7
 48
0.0001279334812111
100
AcDbLine
 10
2719.783582240793
 20
2141.114403077885
 30
0.0
 11
2719.781705409738
 21
2141.119163820073
 31
0.0
  0
LINE
  5
273
330
2
100
AcDbEntity
  8
0
 62
     7
 48
0.0035520920810216
100
AcDbLine
 10
2719.781705409738
 20
2141.119163820073
 30
0.0
 11
2719.725781947824
 21
2141.249779054448
 31
0.0
  0
LINE
  5
274
330
2
100
AcDbEntity
  8
0
 62
     7
 48
0.0018049358124455
100
AcDbLine
 10
2719.87754586384
 20
2140.317589113041
 30
0.0
 11
2719.892850429269
 21
2140.388145753666
 31
0.0
  0
LINE
  5
275
330
2
100
AcDbEntity
  8
0
 62
     7
 48
0.0012272487621835
100
AcDbLine
 10
2719.863568813059
 20
2140.270531007573
 30
0.0
 11
2719.87754586384
 21
2140.317589113041
 31
0.0
  0
LINE
  5
276
330
2
100
AcDbEntity
  8
0
 62
     7
 48
0.0005427638619712
100
AcDbLine
 10
2719.856442958567
 20
2140.250023195073
 30
0.0
 11
2719.863568813059
 21
2140.270531007573
 31
0.0
  0
LINE
  5
277
330
2
100
AcDbEntity
  8
0
 62
     7
 48
0.0017496855360244
100
AcDbLine
 10
2719.829602748605
 20
2140.185386964604
 30
0.0
 11
2719.856442958567
 21
2140.250023195073
 31
0.0
  0
LINE
  5
278
330
2
100
AcDbEntity
  8
0
 62
     7
 48
0.0017434614275826
100
AcDbLine
 10
2719.796994716379
 20
2140.123741456791
 30
0.0
 11
2719.829602748605
 21
2140.185386964604
 31
0.0
  0
ARC
  5
279
330
2
100
AcDbEntity
  8
0
 62
     7
100
AcDbCircle
 10
2719.12022164509
 20
2140.523887941167
 30
0.0
 40
0.7862319350242615
100
AcDbArc
 50
320.3066600058082
 51
329.406220208884
  0
ARC
  5
27A
330
2
100
AcDbEntity
  8
0
 62
     7
100
AcDbCircle
 10
2719.125897914621
 20
2140.522484132572
 30
0.0
 40
0.7807047963142395
100
AcDbArc
 50
320.1409609858736
 51
329.2695753014181
  0
LINE
  5
27B
330
2
100
AcDbEntity
  8
0
 62
     7
 48
0.0017505645751953
100
AcDbLine
 10
2719.79697945759
 20
2140.123558351322
 30
0.0
 11
2719.829618007395
 21
2140.185509034917
 31
0.0
  0
LINE
  5
27C
330
2
100
AcDbEntity
  8
0
 62
     7
 48
0.0017510948450361
100
AcDbLine
 10
2719.829618007395
 20
2140.185509034917
 30
0.0
 11
2719.856458217356
 21
2140.250206300541
 31
0.0
  0
LINE
  5
27D
330
2
100
AcDbEntity
  8
0
 62
     7
 48
0.0005440806840208
100
AcDbLine
 10
2719.856458217356
 20
2140.250206300541
 30
0.0
 11
2719.863568813059
 21
2140.270775148198
 31
0.0
  0
LINE
  5
27E
330
2
100
AcDbEntity
  8
0
 62
     7
 48
0.0012286031318309
100
AcDbLine
 10
2719.863568813059
 20
2140.270775148198
 30
0.0
 11
2719.877530605051
 21
2140.317894288823
 31
0.0
  0
LINE
  5
27F
330
2
100
AcDbEntity
  8
0
 62
     7
 48
0.0018080799468364
100
AcDbLine
 10
2719.877530605051
 20
2140.317894288823
 30
0.0
 11
2719.892865688059
 21
2140.38857299976
 31
0.0
  0
LINE
  5
280
330
2
100
AcDbEntity
  8
0
 62
     7
 48
0.001854028268111
100
AcDbLine
 10
2719.892850429269
 20
2140.388145753666
 30
0.0
 11
2719.902371913645
 21
2140.461693116948
 31
0.0
  0
LINE
  5
281
330
2
100
AcDbEntity
  8
0
 62
     7
 48
0.0018570548105009
100
AcDbLine
 10
2719.892865688059
 20
2140.38857299976
 30
0.0
 11
2719.902387172433
 21
2140.462242433354
 31
0.0
  0
LWPOLYLINE
  5
282
330
2
100
AcDbEntity
  8
0
 62
     7
100
AcDbPolyline
 90
       11
 70
     0
 43
0.0
 10
2713.394971400949
 20
2137.774925538823
 10
2715.40359261677
 20
2137.805137941167
 10
2716.70289376423
 20
2137.899376222417
 10
2717.536038905832
 20
2138.037193605229
 10
2718.203244716379
 20
2138.23622924976
 10
2718.793790370676
 20
2138.534263917729
 10
2719.238751918528
 20
2138.896202394291
 10
2719.517102748605
 20
2139.238365480229
 10
2719.749661952707
 20
2139.689232179448
 10
2719.891355067941
 20
2140.274864503666
 10
2719.906110316965
 20
2140.549949952885
  0
LWPOLYLINE
  5
283
330
2
100
AcDbEntity
  8
0
 62
     7
100
AcDbPolyline
 90
       15
 70
     0
 43
0.0
 10
2719.666821986887
 20
2141.698204347416
 10
2719.209714442941
 20
2142.792747804448
 10
2718.709287196848
 20
2143.868004152104
 10
2718.205792934153
 20
2144.848594972417
 10
2717.665784389231
 20
2145.809532472417
 10
2716.912061244699
 20
2147.02382690601
 10
2716.133603603098
 20
2148.152916261479
 10
2715.341718227121
 20
2149.19619018726
 10
2714.555249721262
 20
2150.146019288823
 10
2713.104062587473
 20
2151.716331788823
 10
2711.692578822824
 20
2153.065574952885
 10
2710.192349940988
 20
2154.359337159916
 10
2708.453504115793
 20
2155.730675050541
 10
2706.488584071848
 20
2157.163231202885
 10
2704.636853725168
 20
2158.424949952885
  0
ARC
  5
284
330
2
100
AcDbEntity
  8
0
100
AcDbCircle
 10
2430.30678072472
 20
6421.514006814835
 30
0.0
 40
4272.20283357798
100
AcDbArc
 50
273.3739503594151
 51
273.4897126881736
  0
LINE
  5
285
330
2
100
AcDbEntity
  8
0
 62
     7
100
AcDbLine
 10
2713.394971400949
 20
2137.774925538823
 30
0.0
 11
2685.341275722239
 21
2137.774925538823
 31
0.0
  0
LWPOLYLINE
  5
286
330
2
100
AcDbEntity
  8
0
 62
     7
100
AcDbPolyline
 90
       13
 70
     0
 43
0.0
 10
2714.572248012277
 20
2161.480614015385
 10
2714.370984584543
 20
2160.991966554448
 10
2714.214978725168
 20
2160.76699096851
 10
2713.879346400949
 20
2160.433128663823
 10
2713.375638515207
 20
2160.110130616947
 10
2712.765958339426
 20
2159.847374269291
 10
2711.786588222238
 20
2159.550499269291
 10
2710.445523769113
 20
2159.252708741948
 10
2708.307981044504
 20
2158.892845460698
 10
2705.279019862863
 20
2158.498070070073
 10
2700.900418788645
 20
2158.047020265385
 10
2694.780103236887
 20
2157.542320558354
 10
2690.352887660715
 20
2157.232933351323
  0
ARC
  5
287
330
2
100
AcDbEntity
  8
0
  6
ByBlock
100
AcDbCircle
 10
2663.07060706507
 20
2667.363910138736
 30
0.0
 40
50.0
100
AcDbArc
 50
0.0
 51
78.28305293308303
  0
ARC
  5
288
330
2
100
AcDbEntity
  8
0
  6
ByBlock
100
AcDbCircle
 10
2399.070607065069
 20
2667.363910138737
 30
0.0
 40
50.0
100
AcDbArc
 50
101.7169470669169
 51
180.0
  0
LINE
  5
289
330
2
100
AcDbEntity
  8
0
  6
ByBlock
100
AcDbLine
 10
2531.070607065069
 20
2660.908098632549
 30
0.0
 11
2709.570607065069
 21
2660.908098632549
 31
0.0
  0
LINE
  5
28A
330
2
100
AcDbEntity
  8
0
  6
ByBlock
100
AcDbLine
 10
2531.070607065069
 20
2657.908098632549
 30
0.0
 11
2709.566770543077
 21
2657.908098632549
 31
0.0
  0
ARC
  5
28B
330
2
100
AcDbEntity
  8
0
  6
ByBlock
100
AcDbCircle
 10
2219.586202491954
 20
2484.635951196546
 30
0.0
 40
480.0
100
AcDbArc
 50
338.9614851820741
 51
351.100180465991
  0
ARC
  5
28C
330
2
100
AcDbEntity
  8
0
  6
PHANTOM
100
AcDbCircle
 10
2629.168412201082
 20
2405.040824294907
 30
0.0
 40
60.00000000000269
100
AcDbArc
 50
275.9902582270945
 51
350.5492633647321
  0
ARC
  5
28E
330
2
100
AcDbEntity
  8
0
  6
ByBlock
100
AcDbCircle
 10
3949.070607065069
 20
2657.908098632549
 30
0.0
 40
1600.0
100
AcDbArc
 50
180.1256093886138
 51
188.899819534009
  0
LINE
  5
28F
330
2
100
AcDbEntity
  8
0
  6
ByBlock
100
AcDbLine
 10
2403.885532680344
 20
2305.908098632549
 30
0.0
 11
2531.070607065069
 21
2305.908098632549
 31
0.0
  0
ARC
  5
290
330
2
100
AcDbEntity
  8
0
  6
PHANTOM
100
AcDbCircle
 10
2531.070607065068
 20
3339.908098632573
 30
0.0
 40
1000.000000000023
100
AcDbArc
 50
264.0097417729055
 51
270.0
  0
LINE
  5
291
330
2
100
AcDbEntity
  8
0
 62
     7
100
AcDbLine
 10
2564.271118617523
 20
2240.908098632549
 30
0.0
 11
2497.870095512615
 21
2240.908098632548
 31
0.0
  0
LINE
  5
292
330
2
100
AcDbEntity
  8
0
100
AcDbLine
 10
2557.570607065069
 20
2305.908098632549
 30
0.0
 11
2504.570607065069
 21
2305.908098632549
 31
0.0
  0
ARC
  5
293
330
2
100
AcDbEntity
  8
0
  6
ByBlock
100
AcDbCircle
 10
2842.555011638184
 20
2484.635951196546
 30
0.0
 40
480.0
100
AcDbArc
 50
188.899819534009
 51
201.0385148179258
  0
ARC
  5
294
330
2
100
AcDbEntity
  8
0
  6
PHANTOM
100
AcDbCircle
 10
2432.972801929053
 20
2405.040824294905
 30
0.0
 40
60.00000000000052
100
AcDbArc
 50
189.4507366352678
 51
264.0097417729055
  0
ARC
  5
295
330
2
100
AcDbEntity
  8
0
  6
ByBlock
100
AcDbCircle
 10
2403.885532680344
 20
2315.908098632549
 30
0.0
 40
10.0
100
AcDbArc
 50
201.0385148179258
 51
270.0
  0
LINE
  5
296
330
2
100
AcDbEntity
  8
0
100
AcDbLine
 10
2494.877259121146
 20
2243.700902266985
 30
0.0
 11
2490.570607065069
 21
2305.908098632549
 31
0.0
  0
ARC
  5
297
330
2
100
AcDbEntity
  8
0
100
AcDbCircle
 10
2497.870095512615
 20
2243.908098632549
 30
0.0
 40
3.0
100
AcDbArc
 50
183.9603118304817
 51
270.0
  0
ARC
  5
298
330
2
100
AcDbEntity
  8
0
  6
PHANTOM
100
AcDbCircle
 10
2531.070607065068
 20
3339.908098632538
 30
0.0
 40
999.9999999999888
100
AcDbArc
 50
270.0
 51
275.9902582270945
  0
LINE
  5
299
330
2
100
AcDbEntity
  8
0
  6
ByBlock
100
AcDbLine
 10
2658.255681449793
 20
2305.908098632549
 30
0.0
 11
2531.070607065069
 21
2305.908098632549
 31
0.0
  0
LINE
  5
29A
330
2
100
AcDbEntity
  8
0
100
AcDbLine
 10
2567.263955008991
 20
2243.700902266986
 30
0.0
 11
2571.570607065069
 21
2305.908098632549
 31
0.0
  0
ARC
  5
29B
330
2
100
AcDbEntity
  8
0
100
AcDbCircle
 10
2564.271118617523
 20
2243.908098632549
 30
0.0
 40
3.0
100
AcDbArc
 50
270.0
 51
356.0396881695181
  0
ARC
  5
29C
330
2
100
AcDbEntity
  8
0
  6
ByBlock
100
AcDbCircle
 10
2658.255681449793
 20
2315.908098632549
 30
0.0
 40
10.0
100
AcDbArc
 50
270.0
 51
338.9614851820741
  0
LINE
  5
29D
330
2
100
AcDbEntity
  8
0
  6
ByBlock
100
AcDbLine
 10
2531.070607065069
 20
2657.908098632549
 30
0.0
 11
2352.574443587061
 21
2657.908098632549
 31
0.0
  0
LINE
  5
29E
330
2
100
AcDbEntity
  8
0
  6
ByBlock
100
AcDbLine
 10
2531.070607065069
 20
2660.908098632549
 30
0.0
 11
2352.570607065069
 21
2660.908098632549
 31
0.0
  0
ARC
  5
29F
330
2
100
AcDbEntity
  8
0
  6
ByBlock
100
AcDbCircle
 10
2352.570607065069
 20
2664.408098632549
 30
0.0
 40
3.5
100
AcDbArc
 50
180.0
 51
270.0
  0
ARC
  5
2A0
330
2
100
AcDbEntity
  8
0
  6
ByBlock
100
AcDbCircle
 10
2352.574443587061
 20
2654.408098632549
 30
0.0
 40
3.5
100
AcDbArc
 50
90.0
 51
180.1256093886659
  0
LINE
  5
2A1
330
2
100
AcDbEntity
  8
0
  6
ByBlock
100
AcDbLine
 10
2355.112855501464
 20
2657.908098632549
 30
0.0
 11
2355.385582774192
 21
2660.908098632549
 31
0.0
  0
LINE
  5
2A2
330
2
100
AcDbEntity
  8
0
  6
ByBlock
100
AcDbLine
 10
2349.070607065069
 20
2664.408098632549
 30
0.0
 11
2349.070607065069
 21
2667.363910138737
 31
0.0
  0
ARC
  5
2A3
330
2
100
AcDbEntity
  8
0
  6
ByBlock
100
AcDbCircle
 10
1113.070607065069
 20
2657.908098632549
 30
0.0
 40
1600.0
100
AcDbArc
 50
351.100180465991
 51
359.8743906113862
  0
LINE
  5
2A4
330
2
100
AcDbEntity
  8
0
  6
ByBlock
100
AcDbLine
 10
2707.028358628674
 20
2657.908098632549
 30
0.0
 11
2706.755631355946
 21
2660.908098632549
 31
0.0
  0
LINE
  5
2A5
330
2
100
AcDbEntity
  8
0
  6
ByBlock
100
AcDbLine
 10
2713.070607065069
 20
2664.408098632549
 30
0.0
 11
2713.070607065069
 21
2667.363910138737
 31
0.0
  0
ARC
  5
2A6
330
2
100
AcDbEntity
  8
0
  6
ByBlock
100
AcDbCircle
 10
2709.570607065069
 20
2664.408098632549
 30
0.0
 40
3.5
100
AcDbArc
 50
270.0
 51
0.0
  0
ARC
  5
2A7
330
2
100
AcDbEntity
  8
0
  6
ByBlock
100
AcDbCircle
 10
2709.566770543077
 20
2654.408098632549
 30
0.0
 40
3.5
100
AcDbArc
 50
359.8743906113341
 51
90.0
  0
LINE
  5
2A8
330
2
100
AcDbEntity
  8
0
 62
     7
100
AcDbLine
 10
2530.570607065069
 20
2751.295709078149
 30
0.0
 11
2500.091070645289
 21
2751.295709078149
 31
0.0
  0
ARC
  5
2A9
330
2
100
AcDbEntity
  8
0
 62
     7
100
AcDbCircle
 10
2541.298564912545
 20
2544.645781632466
 30
0.0
 40
210.8980868917524
100
AcDbArc
 50
93.64463133472282
 51
101.2675396316965
  0
LINE
  5
2AA
330
2
100
AcDbEntity
  8
0
 62
     7
100
AcDbLine
 10
2530.570607065069
 20
2749.295709078149
 30
0.0
 11
2498.070607065068
 21
2749.295709078149
 31
0.0
  0
ARC
  5
2AB
330
2
100
AcDbEntity
  8
0
 62
     7
100
AcDbCircle
 10
2539.43064736062
 20
2483.69595317356
 30
0.0
 40
244.6033495033317
100
AcDbArc
 50
92.46214919113814
 51
98.43022425452916
  0
LINE
  5
2AC
330
2
100
AcDbEntity
  8
0
 62
     7
100
AcDbLine
 10
2531.070607065069
 20
2725.656396424622
 30
0.0
 11
2503.570607065069
 21
2725.656396424622
 31
0.0
  0
LINE
  5
2AD
330
2
100
AcDbEntity
  8
0
 62
     7
100
AcDbLine
 10
2531.070607065069
 20
2725.156396424623
 30
0.0
 11
2503.570607065069
 21
2725.156396424623
 31
0.0
  0
ARC
  5
2AE
330
2
100
AcDbEntity
  8
0
  6
ByBlock
100
AcDbCircle
 10
2531.070607065069
 20
2030.908098632548
 30
0.0
 40
700.0
100
AcDbArc
 50
91.55536217963271
 51
101.7169470669169
  0
ARC
  5
2AF
330
2
100
AcDbEntity
  8
0
100
AcDbCircle
 10
2505.675580417919
 20
2670.892799395511
 30
0.0
 40
54.30440935461852
100
AcDbArc
 50
92.22148281045944
 51
112.7610593920148
  0
ARC
  5
2B0
330
2
100
AcDbEntity
  8
0
 62
     7
100
AcDbCircle
 10
2500.481851755488
 20
2749.5174649713
 30
0.0
 40
2.0
100
AcDbArc
 50
101.2675396316965
 51
150.9406563452563
  0
LINE
  5
2B1
330
2
100
AcDbEntity
  8
0
 62
     7
100
AcDbLine
 10
2498.070607065068
 20
2749.295709078149
 30
0.0
 11
2498.733617554821
 21
2750.488895452403
 31
0.0
  0
LINE
  5
2B2
330
2
100
AcDbEntity
  8
0
 62
     7
100
AcDbLine
 10
2503.570607065069
 20
2725.156396424623
 30
0.0
 11
2503.570607065069
 21
2725.656396424622
 31
0.0
  0
ARC
  5
2B3
330
2
100
AcDbEntity
  8
0
  6
ByBlock
100
AcDbCircle
 10
2531.070607065069
 20
2030.908098632548
 30
0.0
 40
700.0
100
AcDbArc
 50
78.28305293308303
 51
88.44463782036729
  0
ARC
  5
2B4
330
2
100
AcDbEntity
  8
0
100
AcDbCircle
 10
2556.465633712217
 20
2670.892799395511
 30
0.0
 40
54.30440935461852
100
AcDbArc
 50
67.23894060798516
 51
87.77851718954057
  0
ARC
  5
2B5
330
2
100
AcDbEntity
  8
0
 62
     7
100
AcDbCircle
 10
2520.842649217593
 20
2544.645781632466
 30
0.0
 40
210.8980868917524
100
AcDbArc
 50
78.73246036830341
 51
86.3553686652772
  0
LINE
  5
2B6
330
2
100
AcDbEntity
  8
0
 62
     7
100
AcDbLine
 10
2531.570607065069
 20
2751.295709078149
 30
0.0
 11
2562.05014348485
 21
2751.295709078149
 31
0.0
  0
LINE
  5
2B7
330
2
100
AcDbEntity
  8
0
 62
     7
100
AcDbLine
 10
2531.570607065069
 20
2749.295709078149
 30
0.0
 11
2564.07060706507
 21
2749.295709078149
 31
0.0
  0
ARC
  5
2B8
330
2
100
AcDbEntity
  8
0
 62
     7
100
AcDbCircle
 10
2522.710566769518
 20
2483.69595317356
 30
0.0
 40
244.6033495033317
100
AcDbArc
 50
81.56977574547083
 51
87.53785080886187
  0
LINE
  5
2B9
330
2
100
AcDbEntity
  8
0
 62
     7
100
AcDbLine
 10
2531.070607065069
 20
2725.656396424622
 30
0.0
 11
2558.570607065069
 21
2725.656396424622
 31
0.0
  0
LINE
  5
2BA
330
2
100
AcDbEntity
  8
0
 62
     7
100
AcDbLine
 10
2531.070607065069
 20
2725.156396424623
 30
0.0
 11
2558.570607065069
 21
2725.156396424623
 31
0.0
  0
ARC
  5
2BB
330
2
100
AcDbEntity
  8
0
 62
     7
100
AcDbCircle
 10
2531.070607065069
 20
2705.218454412413
 30
0.0
 40
50.0
100
AcDbArc
 50
90.57296734486966
 51
93.64463133472282
  0
LINE
  5
2BC
330
2
100
AcDbEntity
  8
0
100
AcDbLine
 10
2531.570607065069
 20
2755.21595434991
 30
0.0
 11
2530.570607065069
 21
2755.21595434991
 31
0.0
  0
ARC
  5
2BD
330
2
100
AcDbEntity
  8
0
 62
     7
100
AcDbCircle
 10
2531.070607065069
 20
2705.218454412413
 30
0.0
 40
50.0
100
AcDbArc
 50
86.3553686652772
 51
89.42703265513033
  0
ARC
  5
2BE
330
2
100
AcDbEntity
  8
0
 62
     7
100
AcDbCircle
 10
2531.070607065069
 20
2678.119648653747
 30
0.0
 40
50.0
100
AcDbArc
 50
87.53785080886187
 51
92.46214919113814
  0
LINE
  5
2BF
330
2
100
AcDbEntity
  8
0
 62
     7
100
AcDbLine
 10
2512.070607065069
 20
2726.764311425462
 30
0.0
 11
2512.070607065069
 21
2749.295709078149
 31
0.0
  0
LINE
  5
2C0
330
2
100
AcDbEntity
  8
0
 62
     7
100
AcDbLine
 10
2531.570607065069
 20
2728.117148591244
 30
0.0
 11
2531.570607065069
 21
2755.215954349911
 31
0.0
  0
LINE
  5
2C1
330
2
100
AcDbEntity
  8
0
 62
     7
100
AcDbLine
 10
2530.570607065069
 20
2728.117148591244
 30
0.0
 11
2530.570607065069
 21
2755.215954349911
 31
0.0
  0
ARC
  5
2C2
330
2
100
AcDbEntity
  8
0
 62
     7
100
AcDbCircle
 10
2561.659362374649
 20
2749.5174649713
 30
0.0
 40
2.0
100
AcDbArc
 50
29.05934365474366
 51
78.73246036830341
  0
LINE
  5
2C3
330
2
100
AcDbEntity
  8
0
 62
     7
100
AcDbLine
 10
2564.07060706507
 20
2749.295709078149
 30
0.0
 11
2563.407596575317
 21
2750.488895452403
 31
0.0
  0
LINE
  5
2C4
330
2
100
AcDbEntity
  8
0
 62
     7
100
AcDbLine
 10
2558.570607065069
 20
2725.156396424623
 30
0.0
 11
2558.570607065069
 21
2725.656396424622
 31
0.0
  0
LINE
  5
2C5
330
2
100
AcDbEntity
  8
0
 62
     7
100
AcDbLine
 10
2550.070607065069
 20
2726.764311425462
 30
0.0
 11
2550.070607065069
 21
2749.29570907815
 31
0.0
  0
ENDSEC
  0
SECTION
  2
OBJECTS
  0
DICTIONARY
  5
7
330
0
100
AcDbDictionary
281
     1
  3
ACAD_GROUP
350
21
  3
ACAD_LAYOUT
350
B
  3
ACAD_MLINESTYLE
350
22
  3
ACAD_PLOTSETTINGS
350
23
  3
ACAD_PLOTSTYLENAME
350
6
  3
AcDbVariableDictionary
350
2C6
  0
DICTIONARY
  5
11
330
10
100
AcDbDictionary
280
     1
281
     1
  3
ACAD_LAYERSTATES
360
12
  0
DICTIONARY
  5
34
330
30
100
AcDbDictionary
280
     1
281
     1
  3
ACAD_SORTENTS
360
35
  0
DICTIONARY
  5
38
330
2E
100
AcDbDictionary
280
     1
281
     1
  3
ACAD_SORTENTS
360
39
  0
DICTIONARY
  5
42
330
3E
100
AcDbDictionary
280
     1
281
     1
  3
ACAD_SORTENTS
360
43
  0
DICTIONARY
  5
21
102
{ACAD_REACTORS
330
7
102
}
330
7
100
AcDbDictionary
281
     1
  0
DICTIONARY
  5
B
102
{ACAD_REACTORS
330
7
102
}
330
7
100
AcDbDictionary
281
     1
  3
Layout1
350
F
  3
Model
350
A
  0
DICTIONARY
  5
22
102
{ACAD_REACTORS
330
7
102
}
330
7
100
AcDbDictionary
281
     1
  3
Standard
350
24
  0
DICTIONARY
  5
23
102
{ACAD_REACTORS
330
7
102
}
330
7
100
AcDbDictionary
281
     1
  0
ACDBDICTIONARYWDFLT
  5
6
102
{ACAD_REACTORS
330
7
102
}
330
7
100
AcDbDictionary
281
     1
  3
Normal
350
5
100
AcDbDictionaryWithDefault
340
5
  0
DICTIONARY
  5
2C6
102
{ACAD_REACTORS
330
7
102
}
330
7
100
AcDbDictionary
281
     1
  3
DIMASSOC
350
2C8
  3
HIDETEXT
350
2C7
  0
DICTIONARY
  5
12
102
{ACAD_REACTORS
330
11
102
}
330
11
100
AcDbDictionary
281
     1
  0
SORTENTSTABLE
  5
35
102
{ACAD_REACTORS
330
34
102
}
330
34
100
AcDbSortentsTable
330
30
  0
SORTENTSTABLE
  5
39
102
{ACAD_REACTORS
330
38
102
}
330
38
100
AcDbSortentsTable
330
2E
  0
SORTENTSTABLE
  5
43
102
{ACAD_REACTORS
330
42
102
}
330
42
100
AcDbSortentsTable
330
3E
  0
LAYOUT
  5
F
102
{ACAD_REACTORS
330
B
102
}
330
B
100
AcDbPlotSettings
  1

  2
\\eppnt100\EPPPR005
  4

  6

 40
0.0
 41
0.0
 42
0.0
 43
0.0
 44
0.0
 45
0.0
 46
0.0
 47
0.0
 48
0.0
 49
0.0
140
0.0
141
0.0
142
1.0
143
1.0
 70
   688
 72
     0
 73
     0
 74
     5
  7

 75
    16
147
1.0
148
0.0
149
0.0
100
AcDbLayout
  1
Layout1
 70
     1
 71
     1
 10
0.0
 20
0.0
 11
420.0
 21
297.0
 12
0.0
 22
0.0
 32
0.0
 14
1.000000000000000E+20
 24
1.000000000000000E+20
 34
1.000000000000000E+20
 15
-1.000000000000000E+20
 25
-1.000000000000000E+20
 35
-1.000000000000000E+20
146
0.0
 13
0.0
 23
0.0
 33
0.0
 16
1.0
 26
0.0
 36
0.0
 17
0.0
 27
1.0
 37
0.0
 76
     0
330
C
  0
LAYOUT
  5
A
102
{ACAD_REACTORS
330
B
102
}
330
B
100
AcDbPlotSettings
  1

  2
\\eppnt100\EPPPR005
  4

  6

 40
0.0
 41
0.0
 42
0.0
 43
0.0
 44
0.0
 45
0.0
 46
0.0
 47
0.0
 48
0.0
 49
0.0
140
0.0
141
0.0
142
1.0
143
1.0
 70
  1712
 72
     0
 73
     0
 74
     0
  7

 75
     0
147
1.0
148
0.0
149
0.0
100
AcDbLayout
  1
Model
 70
     1
 71
     0
 10
0.0
 20
0.0
 11
12.0
 21
9.0
 12
0.0
 22
0.0
 32
0.0
 14
0.0
 24
0.0
 34
0.0
 15
0.0
 25
0.0
 35
0.0
146
0.0
 13
0.0
 23
0.0
 33
0.0
 16
1.0
 26
0.0
 36
0.0
 17
0.0
 27
1.0
 37
0.0
 76
     0
330
2
  0
MLINESTYLE
  5
24
102
{ACAD_REACTORS
330
22
102
}
330
22
100
AcDbMlineStyle
  2
STANDARD
 70
     0
  3

 62
   256
 51
90.0
 52
90.0
 71
     2
 49
0.5
 62
   256
  6
BYLAYER
 49
-0.5
 62
   256
  6
BYLAYER
  0
ACDBPLACEHOLDER
  5
5
102
{ACAD_REACTORS
330
6
102
}
330
6
  0
DICTIONARYVAR
  5
2C8
102
{ACAD_REACTORS
330
2C6
102
}
330
2C6
100
DictionaryVariables
280
     0
  1
2
  0
DICTIONARYVAR
  5
2C7
102
{ACAD_REACTORS
330
2C6
102
}
330
2C6
100
DictionaryVariables
280
     0
  1
1
  0
ENDSEC
  0
EOF
